  0
SECTION
  2
HEADER
  9
$LIMMIN
 10
0
 20
0
  9
$LIMMAX
 10
52.5
 20
74.25
  9
$EXTMIN
 10
0
 20
100
  9
$EXTMAX
 10
0
 20
100
  0
ENDSEC
  0
SECTION
  2
TABLES
  0
TABLE
  2
LTYPE
 70
9
  0
LTYPE
  2
CONTINUOUS
 70
64
  3
Solid line
 72
65
 73
0
 40
0
  0
LTYPE
  2
DASHED
 70
64
  3
__ __ __ __ __ __ __ __ __
 72
65
 73
2
 40
0.75
 49
0.5
 49
-0.25
  0
LTYPE
  2
DOT
 70
64
  3
...........................
 72
65
 73
2
 40
0.25
 49
0
 49
-0.25
  0
LTYPE
  2
DASHDOT
 70
64
  3
__ . __ . __ . __ . __ . __ . 
 72
65
 73
4
 40
1
 49
0.5
 49
-0.25
 49
0
 49
-0.25
  0
ENDTAB
  0
TABLE
  2
LAYER
 70
10
  0
LAYER
  2
1
 70
0
 62
7
  6
CONTINUOUS
  0
LAYER
  2
CONNECTIONS
 70
0
 62
-7
  6
CONTINUOUS
  0
ENDTAB
  0
ENDSEC
  0
SECTION
  2
BLOCKS
  0
BLOCK
  8
0
  2
TRICON
 70
0
 10
0
 20
0
  0
POLYLINE
  8
1
 70
1
 66
1
 40
0.5
 41
0.5
  0
VERTEX
  8
1
 10
-0.25
 20
0
 42
1
  0
VERTEX
  8
1
 10
0.25
 20
0
 42
1
  0
SEQEND
  8
1
  0
ENDBLK
  8
0
  0
BLOCK
  8
0
  2
TRICONSMALL
 70
0
 10
0
 20
0
  0
POLYLINE
  8
1
 70
1
 66
1
 40
0.25
 41
0.25
  0
VERTEX
  8
1
 10
-0.125
 20
0
 42
1
  0
VERTEX
  8
1
 10
0.125
 20
0
 42
1
  0
SEQEND
  8
1
  0
ENDBLK
  8
0
  0
BLOCK
  8
0
  2
TRICONCIRCLE
 70
0
 10
0
 20
0
  0
CIRCLE
  8
1
 10
0
 20
0
 40
0.5
  0
ENDBLK
  8
0
  0
BLOCK
  8
0
  2
LCBP0
 70
0
 10
0
 20
0
  0
LINE
  8
1
 10
0
 20
-0.46875
 11
0
 21
0.46875
  0
ENDBLK
  8
0
  0
BLOCK
  8
0
  2
LCBP1
 70
0
 10
0
 20
0
  0
LINE
  8
1
 10
0
 20
-0.625
 11
0
 21
0.625
  0
ENDBLK
  8
0
  0
BLOCK
  8
0
  2
LCBP2
 70
0
 10
0
 20
0
  0
LINE
  8
1
 10
0
 20
-0.9375
 11
0
 21
0.9375
  0
ENDBLK
  8
0
  0
BLOCK
  8
0
  2
LCA1
 70
0
 10
0
 20
0
  0
SOLID
  8
1
 62
7 
 10
0
 20
0
 11
-1.4
 21
-0.275
 12
-1.4
 22
0.275
 13
-1.4
 23
0.275
  0
ENDBLK
  8
0
  0
BLOCK
  8
0
  2
LCA2
 70
0
 10
0
 20
0
  0
SOLID
  8
1
 62
7 
 10
0
 20
0
 11
-1.65
 21
-0.525
 12
-1.65
 22
0.525
 13
-1.65
 23
0.525
  0
ENDBLK
  8
0
  0
BLOCK
  8
0
  2
LCA3
 70
0
 10
0
 20
0
  0
SOLID
  8
1
 62
7 
 10
0
 20
0
 11
-2.15
 21
-1.15
 12
-2.15
 22
1.15
 13
-2.15
 23
1.15
  0
ENDBLK
  8
0
  0
BLOCK
  8
0
  2
LCA1R
 70
0
 10
0
 20
0
  0
SOLID
  8
1
 62
7 
 10
0
 20
0
 11
1.4
 21
-0.275
 12
1.4
 22
0.275
 13
1.4
 23
0.275
  0
ENDBLK
  8
0
  0
BLOCK
  8
0
  2
LCA2R
 70
0
 10
0
 20
0
  0
SOLID
  8
1
 62
7 
 10
0
 20
0
 11
1.65
 21
-0.525
 12
1.65
 22
0.525
 13
1.65
 23
0.525
  0
ENDBLK
  8
0
  0
BLOCK
  8
0
  2
LCA3R
 70
0
 10
0
 20
0
  0
SOLID
  8
1
 62
7 
 10
0
 20
0
 11
2.15
 21
-1.15
 12
2.15
 22
1.15
 13
2.15
 23
1.15
  0
ENDBLK
  8
0
  0
BLOCK
  8
0
  2
B2343_00995709
 70
0
 10
0
 20
0
  0
POLYLINE
  8
1
 66
1
  0
VERTEX
  8
1
 10
-50
 20
50
  0
VERTEX
  8
1
 10
50
 20
50
  0
VERTEX
  8
1
 10
50
 20
-50
  0
VERTEX
  8
1
 10
-50
 20
-50
  0
VERTEX
  8
1
 10
-50
 20
50
  0
SEQEND
  8
1
  0
TEXT
  8
1
 40
10.8
 41
0.75
  1
1
  7
STANDARD
 73
2
 10
24
 20
19.6484394073486
 11
24
 21
19.6484394073486
  0
TEXT
  8
1
 40
10.8
 41
0.75
  1
2
  7
STANDARD
 73
3
 10
26.1255440546618
 20
-12.276759966073
 11
26.1255440546618
 21
-12.276759966073
  0
TEXT
  8
1
 40
10.8
 41
0.75
  1
5
  7
STANDARD
 72
2
 73
2
 10
-25.4086405436198
 20
18.6484394073486
 11
-25.4086405436198
 21
18.6484394073486
  0
TEXT
  8
1
 40
10.8
 41
0.75
  1
6
  7
STANDARD
 10
-22
 20
33.6968788146973
  0
LINE
  8
1
 10
-12
 20
32
 11
-2
 21
7
  0
POLYLINE
  8
1
 66
1
  0
VERTEX
  8
1
 10
-6
 20
29
  0
VERTEX
  8
1
 10
-6
 20
25
  0
VERTEX
  8
1
 10
6
 20
25
  0
VERTEX
  8
1
 10
6
 20
29
  0
SEQEND
  8
1
  0
CIRCLE
  8
1
 10
-15.9666455789992
 20
-7.9999760056024
 40
5
  0
CIRCLE
  8
1
 10
0
 20
-18
 40
5
  0
CIRCLE
  8
1
 10
15.9666444610486
 20
-7.99997767880328
 40
5
  0
CIRCLE
  8
1
 10
-9.473903143468E-15
 20
-3.5527136788005E-15
 40
5
  0
CIRCLE
  8
1
 10
-14.4163868334917
 20
11.0000235138982
 40
5
  0
CIRCLE
  8
1
 10
14.4163832398691
 20
11.0000275316751
 40
5
  0
CIRCLE
  8
1
 10
0
 20
0
 40
30
  0
ENDBLK
  8
0
  0
ENDSEC
  0
SECTION
  2
ENTITIES
  0
INSERT
  8
1
  2
B2343_00995709
 10
50
 20
50
  0
ENDSEC
  0
EOF
