  0
SECTION
  2
HEADER
  9
$LIMMIN
 10
0
 20
0
  9
$LIMMAX
 10
52.5
 20
74.25
  9
$EXTMIN
 10
0
 20
42.5697964191437
  9
$EXTMAX
 10
0
 20
40.0137259960174
  0
ENDSEC
  0
SECTION
  2
TABLES
  0
TABLE
  2
LTYPE
 70
9
  0
LTYPE
  2
CONTINUOUS
 70
64
  3
Solid line
 72
65
 73
0
 40
0
  0
LTYPE
  2
DASHED
 70
64
  3
__ __ __ __ __ __ __ __ __
 72
65
 73
2
 40
0.75
 49
0.5
 49
-0.25
  0
LTYPE
  2
DOT
 70
64
  3
...........................
 72
65
 73
2
 40
0.25
 49
0
 49
-0.25
  0
LTYPE
  2
DASHDOT
 70
64
  3
__ . __ . __ . __ . __ . __ . 
 72
65
 73
4
 40
1
 49
0.5
 49
-0.25
 49
0
 49
-0.25
  0
ENDTAB
  0
TABLE
  2
LAYER
 70
10
  0
LAYER
  2
1
 70
0
 62
7
  6
CONTINUOUS
  0
LAYER
  2
CONNECTIONS
 70
0
 62
-7
  6
CONTINUOUS
  0
ENDTAB
  0
ENDSEC
  0
SECTION
  2
BLOCKS
  0
BLOCK
  8
0
  2
TRICON
 70
0
 10
0
 20
0
  0
POLYLINE
  8
1
 70
1
 66
1
 40
0.5
 41
0.5
  0
VERTEX
  8
1
 10
-0.25
 20
0
 42
1
  0
VERTEX
  8
1
 10
0.25
 20
0
 42
1
  0
SEQEND
  8
1
  0
ENDBLK
  8
0
  0
BLOCK
  8
0
  2
TRICONSMALL
 70
0
 10
0
 20
0
  0
POLYLINE
  8
1
 70
1
 66
1
 40
0.25
 41
0.25
  0
VERTEX
  8
1
 10
-0.125
 20
0
 42
1
  0
VERTEX
  8
1
 10
0.125
 20
0
 42
1
  0
SEQEND
  8
1
  0
ENDBLK
  8
0
  0
BLOCK
  8
0
  2
TRICONCIRCLE
 70
0
 10
0
 20
0
  0
CIRCLE
  8
1
 10
0
 20
0
 40
0.5
  0
ENDBLK
  8
0
  0
BLOCK
  8
0
  2
LCBP0
 70
0
 10
0
 20
0
  0
LINE
  8
1
 10
0
 20
-0.46875
 11
0
 21
0.46875
  0
ENDBLK
  8
0
  0
BLOCK
  8
0
  2
LCBP1
 70
0
 10
0
 20
0
  0
LINE
  8
1
 10
0
 20
-0.625
 11
0
 21
0.625
  0
ENDBLK
  8
0
  0
BLOCK
  8
0
  2
LCBP2
 70
0
 10
0
 20
0
  0
LINE
  8
1
 10
0
 20
-0.9375
 11
0
 21
0.9375
  0
ENDBLK
  8
0
  0
BLOCK
  8
0
  2
LCA1
 70
0
 10
0
 20
0
  0
SOLID
  8
1
 62
7 
 10
0
 20
0
 11
-1.4
 21
-0.275
 12
-1.4
 22
0.275
 13
-1.4
 23
0.275
  0
ENDBLK
  8
0
  0
BLOCK
  8
0
  2
LCA2
 70
0
 10
0
 20
0
  0
SOLID
  8
1
 62
7 
 10
0
 20
0
 11
-1.65
 21
-0.525
 12
-1.65
 22
0.525
 13
-1.65
 23
0.525
  0
ENDBLK
  8
0
  0
BLOCK
  8
0
  2
LCA3
 70
0
 10
0
 20
0
  0
SOLID
  8
1
 62
7 
 10
0
 20
0
 11
-2.15
 21
-1.15
 12
-2.15
 22
1.15
 13
-2.15
 23
1.15
  0
ENDBLK
  8
0
  0
BLOCK
  8
0
  2
LCA1R
 70
0
 10
0
 20
0
  0
SOLID
  8
1
 62
7 
 10
0
 20
0
 11
1.4
 21
-0.275
 12
1.4
 22
0.275
 13
1.4
 23
0.275
  0
ENDBLK
  8
0
  0
BLOCK
  8
0
  2
LCA2R
 70
0
 10
0
 20
0
  0
SOLID
  8
1
 62
7 
 10
0
 20
0
 11
1.65
 21
-0.525
 12
1.65
 22
0.525
 13
1.65
 23
0.525
  0
ENDBLK
  8
0
  0
BLOCK
  8
0
  2
LCA3R
 70
0
 10
0
 20
0
  0
SOLID
  8
1
 62
7 
 10
0
 20
0
 11
2.15
 21
-1.15
 12
2.15
 22
1.15
 13
2.15
 23
1.15
  0
ENDBLK
  8
0
  0
BLOCK
  8
0
  2
B2266_00995688
 70
0
 10
0
 20
0
  0
POLYLINE
  8
1
 66
1
  0
VERTEX
  8
1
 10
-14.7151018301646
 20
17.9931369622549
  0
VERTEX
  8
1
 10
11.2848981698354
 20
17.9931369622549
  0
VERTEX
  8
1
 10
11.2848981698354
 20
-20.0068630377452
  0
VERTEX
  8
1
 10
-14.7151018301646
 20
-20.0068630377452
  0
VERTEX
  8
1
 10
-14.7151018301646
 20
17.9931369622549
  0
SEQEND
  8
1
  0
POLYLINE
  8
1
 70
1
 66
1
 40
0.5
 41
0.5
  0
VERTEX
  8
1
 10
-6.96510183016459
 20
3.99313696225485
 42
1
  0
VERTEX
  8
1
 10
-6.46510183016459
 20
3.99313696225485
 42
1
  0
SEQEND
  8
1
  0
POLYLINE
  8
1
 70
1
 66
1
 40
0.5
 41
0.5
  0
VERTEX
  8
1
 10
-4.96510183016459
 20
-8.00686303774515
 42
1
  0
VERTEX
  8
1
 10
-4.46510183016459
 20
-8.00686303774515
 42
1
  0
SEQEND
  8
1
  0
POLYLINE
  8
1
 70
1
 66
1
 40
0.5
 41
0.5
  0
VERTEX
  8
1
 10
-8.96510183016459
 20
-14.0068630377452
 42
1
  0
VERTEX
  8
1
 10
-8.46510183016459
 20
-14.0068630377452
 42
1
  0
SEQEND
  8
1
  0
POLYLINE
  8
1
 70
1
 66
1
 40
0.5
 41
0.5
  0
VERTEX
  8
1
 10
-10.9651018301646
 20
15.9931369622548
 42
1
  0
VERTEX
  8
1
 10
-10.4651018301646
 20
15.9931369622548
 42
1
  0
SEQEND
  8
1
  0
TEXT
  8
1
 40
1.12499992847443
 41
0.75
  1
B
  7
STANDARD
 72
1
 73
2
 10
-17.9822185516357
 20
-3.0851506392161
 11
-17.9822185516357
 21
-3.0851506392161
  0
TEXT
  8
1
 40
1.12499992847443
 41
0.75
  1
A
  7
STANDARD
 72
1
 73
2
 10
-17.9822185516358
 20
18.9148493607839
 11
-17.9822185516358
 21
18.9148493607839
  0
TEXT
  8
1
 40
1.125
 41
0.75
  1
NPN
  7
STANDARD
 72
1
 73
2
 10
2.61778144836425
 20
-8.08515063921611
 11
2.61778144836425
 21
-8.08515063921611
  0
TEXT
  8
1
 40
1.125
 41
0.75
  1
PNP
  7
STANDARD
 72
1
 73
2
 10
2.61778144836425
 20
-5.08515063921608
 11
2.61778144836425
 21
-5.08515063921608
  0
TEXT
  8
1
 40
1.12499992847443
 41
0.75
  1
NPN
  7
STANDARD
 73
2
 10
1.39961040814716
 20
1.91484936078389
 11
1.39961040814716
 21
1.91484936078389
  0
TEXT
  8
1
 40
1.12499992847443
 41
0.75
  1
PNP/IO-Link
  7
STANDARD
 73
2
 10
1.80829099019367
 20
4.91484936078389
 11
1.80829099019367
 21
4.91484936078389
  0
LINE
  8
1
 10
-15.7151018301646
 20
-10.0068630377452
 11
-14.7151018301646
 21
-10.0068630377452
  0
ARC
  8
1
 10
-16.7151018301646
 20
-10.0068630377452
 40
1
 50
270
 51
90
  0
LINE
  8
1
 10
-15.7151018301646
 20
-14.0068630377452
 11
-14.7151018301646
 21
-14.0068630377452
  0
ARC
  8
1
 10
-16.7151018301646
 20
-14.0068630377452
 40
1
 50
270
 51
90
  0
LINE
  8
1
 10
-15.7151018301646
 20
-18.0068630377451
 11
-14.7151018301646
 21
-18.0068630377451
  0
ARC
  8
1
 10
-16.7151018301646
 20
-18.0068630377451
 40
1
 50
270
 51
90
  0
LINE
  8
1
 10
-15.7151018301646
 20
-6.00686303774515
 11
-14.7151018301646
 21
-6.00686303774515
  0
ARC
  8
1
 10
-16.7151018301646
 20
-6.00686303774515
 40
1
 50
270
 51
90
  0
LINE
  8
1
 10
-15.7151018301646
 20
11.9931369622548
 11
-14.7151018301646
 21
11.9931369622548
  0
ARC
  8
1
 10
-16.7151018301646
 20
11.9931369622548
 40
1
 50
270
 51
90
  0
LINE
  8
1
 10
-15.7151018301646
 20
7.99313696225485
 11
-14.7151018301646
 21
7.99313696225485
  0
ARC
  8
1
 10
-16.7151018301646
 20
7.99313696225485
 40
1
 50
270
 51
90
  0
LINE
  8
1
 10
-15.7151018301646
 20
3.99313696225485
 11
-14.7151018301646
 21
3.99313696225485
  0
ARC
  8
1
 10
-16.7151018301646
 20
3.99313696225485
 40
1
 50
270
 51
90
  0
LINE
  8
1
 10
-15.7151018301646
 20
15.9931369622548
 11
-14.7151018301646
 21
15.9931369622548
  0
ARC
  8
1
 10
-16.7151018301646
 20
15.9931369622548
 40
1
 50
270
 51
90
  0
SOLID
  8
1
 10
14.2848981698354
 20
6.24313696225485
 11
15.7848981698354
 21
6.24313696225485
 12
14.2848981698354
 22
5.74313696225485
 13
15.7848981698354
 23
5.74313696225485
  0
SOLID
  8
1
 10
15.7848981698354
 20
5.74313696225485
 11
14.2848981698354
 21
5.74313696225485
 12
14.2848981698354
 22
5.74313696225485
 13
14.2848981698354
 23
6.24313696225485
  0
LINE
  8
1
 10
9.28489816983541
 20
5.99313696225485
 11
14.2848981698354
 21
5.99313696225485
  0
LINE
  8
1
 10
9.28489816983541
 20
-4.00686303774515
 11
14.2848981698354
 21
-4.00686303774515
  0
SOLID
  8
1
 10
14.2848981698354
 20
-3.75686303774515
 11
15.7848981698354
 21
-3.75686303774515
 12
14.2848981698354
 22
-4.25686303774515
 13
15.7848981698354
 23
-4.25686303774515
  0
SOLID
  8
1
 10
15.7848981698354
 20
-4.25686303774515
 11
14.2848981698354
 21
-4.25686303774515
 12
14.2848981698354
 22
-4.25686303774515
 13
14.2848981698354
 23
-3.75686303774515
  0
SOLID
  8
1
 10
14.3021945269713
 20
-13.8355743464062
 11
15.8021945269713
 21
-13.8355743464062
 12
14.3021945269713
 22
-14.3355743464062
 13
15.8021945269713
 23
-14.3355743464062
  0
SOLID
  8
1
 10
15.8021945269713
 20
-14.3355743464062
 11
14.3021945269713
 21
-14.3355743464062
 12
14.3021945269713
 22
-14.3355743464062
 13
14.3021945269713
 23
-13.8355743464062
  0
LINE
  8
1
 10
11.2848981698354
 20
-14.0068630377452
 11
14.2848981698354
 21
-14.0068630377452
  0
SOLID
  8
1
 10
14.2848981698354
 20
16.2431369622548
 11
15.7848981698354
 21
16.2431369622548
 12
14.2848981698354
 22
15.7431369622548
 13
15.7848981698354
 23
15.7431369622548
  0
SOLID
  8
1
 10
15.7848981698354
 20
15.7431369622548
 11
14.2848981698354
 21
15.7431369622548
 12
14.2848981698354
 22
15.7431369622548
 13
14.2848981698354
 23
16.2431369622548
  0
LINE
  8
1
 10
11.2848981698354
 20
15.9931369622548
 11
14.2848981698354
 21
15.9931369622548
  0
SOLID
  8
1
 10
14.2848981698354
 20
16.2431369622548
 11
15.7848981698354
 21
16.2431369622548
 12
14.2848981698354
 22
15.7431369622548
 13
15.7848981698354
 23
15.7431369622548
  0
SOLID
  8
1
 10
15.7848981698354
 20
15.7431369622548
 11
14.2848981698354
 21
15.7431369622548
 12
14.2848981698354
 22
15.7431369622548
 13
14.2848981698354
 23
16.2431369622548
  0
LINE
  8
1
 10
11.2848981698354
 20
15.9931369622548
 11
14.2848981698354
 21
15.9931369622548
  0
SOLID
  8
1
 10
14.2848981698354
 20
16.2431369622548
 11
15.7848981698354
 21
16.2431369622548
 12
14.2848981698354
 22
15.7431369622548
 13
15.7848981698354
 23
15.7431369622548
  0
SOLID
  8
1
 10
15.7848981698354
 20
15.7431369622548
 11
14.2848981698354
 21
15.7431369622548
 12
14.2848981698354
 22
15.7431369622548
 13
14.2848981698354
 23
16.2431369622548
  0
LINE
  8
1
 10
11.2848981698354
 20
15.9931369622548
 11
14.2848981698354
 21
15.9931369622548
  0
LINE
  8
1
 10
-6.71510183016459
 20
5.99313696225485
 11
-2.71510183016459
 21
5.99313696225485
  0
LINE
  8
1
 10
-6.71510183016459
 20
3.99313696225485
 11
-6.71510183016459
 21
5.99313696225485
  0
LINE
  8
1
 10
-14.7151018301646
 20
3.99313696225485
 11
-6.71510183016459
 21
3.99313696225485
  0
LINE
  8
1
 10
-2.71510183016459
 20
-8.00686303774515
 11
-4.71510183016459
 21
-8.00686303774515
  0
LINE
  8
1
 10
-4.71510183016459
 20
1.99313696225485
 11
-4.71510183016459
 21
-6.00686303774515
  0
LINE
  8
1
 10
-2.71510183016459
 20
1.99313696225485
 11
-4.71510183016459
 21
1.99313696225485
  0
LINE
  8
1
 10
-6.71510183016459
 20
3.99313696225485
 11
-6.71510183016459
 21
-4.00686303774515
  0
LINE
  8
1
 10
-8.71510183016459
 20
7.99313696225485
 11
-8.71510183016459
 21
-14.0068630377452
  0
LINE
  8
1
 10
-14.7151018301646
 20
7.99313696225485
 11
-8.71510183016459
 21
7.99313696225485
  0
LINE
  8
1
 10
-14.7151018301646
 20
11.9931369622548
 11
-12.7151018301646
 21
11.9931369622548
  0
LINE
  8
1
 10
-12.7151018301646
 20
12.9931369622548
 11
-12.7151018301646
 21
10.9931369622548
  0
POLYLINE
  8
1
 66
1
  0
VERTEX
  8
1
 10
-14.7151018301646
 20
-6.00686303774515
  0
VERTEX
  8
1
 10
-10.7151018301646
 20
-6.00686303774515
  0
VERTEX
  8
1
 10
-10.7151018301646
 20
15.9931369622549
  0
SEQEND
  8
1
  0
LINE
  8
1
 10
-14.7151018301646
 20
15.9931369622548
 11
11.2848981698354
 21
15.9931369622548
  0
LINE
  8
1
 10
-4.71510183016459
 20
-6.00686303774515
 11
-4.71510183016459
 21
-18.0068630377451
  0
LINE
  8
1
 10
-12.7151018301646
 20
-9.00686303774515
 11
-12.7151018301646
 21
-11.0068630377452
  0
LINE
  8
1
 10
-14.7151018301646
 20
-10.0068630377452
 11
-12.7151018301646
 21
-10.0068630377452
  0
LINE
  8
1
 10
-14.7151018301646
 20
-14.0068630377452
 11
11.2848981698354
 21
-14.0068630377452
  0
LINE
  8
1
 10
-4.71510183016459
 20
-18.0068630377451
 11
-14.7151018301646
 21
-18.0068630377451
  0
LINE
  8
1
 10
-6.71510183016459
 20
-4.00686303774515
 11
-2.71510183016459
 21
-4.00686303774515
  0
POLYLINE
  8
1
 66
1
  0
VERTEX
  8
1
 10
-2.71510183016459
 20
-2.00686303774515
  0
VERTEX
  8
1
 10
9.28489816983541
 20
-2.00686303774515
  0
VERTEX
  8
1
 10
9.28489816983541
 20
-10.0068630377451
  0
VERTEX
  8
1
 10
-2.71510183016459
 20
-10.0068630377451
  0
VERTEX
  8
1
 10
-2.71510183016459
 20
-2.00686303774515
  0
SEQEND
  8
1
  0
POLYLINE
  8
1
 66
1
  0
VERTEX
  8
1
 10
-2.71510183016459
 20
7.99313696225485
  0
VERTEX
  8
1
 10
9.28489816983541
 20
7.99313696225485
  0
VERTEX
  8
1
 10
9.28489816983541
 20
-0.0068630377451484
  0
VERTEX
  8
1
 10
-2.71510183016459
 20
-0.0068630377451484
  0
VERTEX
  8
1
 10
-2.71510183016459
 20
7.99313696225485
  0
SEQEND
  8
1
  0
TEXT
  8
1
 40
1.125
 41
0.75
  1
4
  7
STANDARD
 72
2
 10
14.2848981698354
 20
-13.4443630377452
 11
14.2848981698354
 21
-13.4443630377452
  0
TEXT
  8
1
 40
1.125
 41
0.75
  1
3
  7
STANDARD
 72
2
 10
14.2848981698354
 20
-3.44436303774515
 11
14.2848981698354
 21
-3.44436303774515
  0
TEXT
  8
1
 40
1.125
 41
0.75
  1
2
  7
STANDARD
 72
2
 10
14.2848981698354
 20
6.55563696225485
 11
14.2848981698354
 21
6.55563696225485
  0
TEXT
  8
1
 40
1.125
 41
0.75
  1
1
  7
STANDARD
 72
2
 10
14.2848981698354
 20
16.5556369622548
 11
14.2848981698354
 21
16.5556369622548
  0
TEXT
  8
1
 40
1.125
 41
0.75
  1
0V
  7
STANDARD
 72
2
 10
20.2848981698354
 20
-14.4443630377452
 11
20.2848981698354
 21
-14.4443630377452
  0
TEXT
  8
1
 40
1.125
 41
0.75
  1
+24V
  7
STANDARD
 72
2
 10
21.2848981698354
 20
15.5556369622548
 11
21.2848981698354
 21
15.5556369622548
  0
TEXT
  8
1
 40
1.125
 41
0.75
  1
2
  7
STANDARD
 72
2
 10
-17.20000301522
 20
-10.9084848495968
 11
-17.20000301522
 21
-10.9084848495968
  0
TEXT
  8
1
 40
1.125
 41
0.75
  1
1
  7
STANDARD
 72
2
 10
-17.3061736526685
 20
-6.87400062655355
 11
-17.3061736526685
 21
-6.87400062655355
  0
TEXT
  8
1
 40
1.125
 41
0.75
  1
2
  7
STANDARD
 72
2
 10
-17.412344290117
 20
11.2811783771412
 11
-17.412344290117
 21
11.2811783771412
  0
TEXT
  8
1
 40
1.125
 41
0.75
  1
3
  7
STANDARD
 72
2
 10
-17.3061736526685
 20
7.34052351664939
 11
-17.3061736526685
 21
7.34052351664939
  0
TEXT
  8
1
 40
1.125
 41
0.75
  1
1
  7
STANDARD
 72
2
 10
-17.5185149275655
 20
15.3156626001845
 11
-17.5185149275655
 21
15.3156626001845
  0
TEXT
  8
1
 40
1.125
 41
0.75
  1
4
  7
STANDARD
 72
2
 10
-17.412344290117
 20
3.53920174757787
 11
-17.412344290117
 21
3.53920174757787
  0
TEXT
  8
1
 40
1.125
 41
0.75
  1
3
  7
STANDARD
 72
2
 10
-17.0938323777715
 20
-14.6491397100886
 11
-17.0938323777715
 21
-14.6491397100886
  0
TEXT
  8
1
 40
1.125
 41
0.75
  1
4
  7
STANDARD
 72
2
 10
-17.20000301522
 20
-18.6504614791601
 11
-17.20000301522
 21
-18.6504614791601
  0
TEXT
  8
1
 40
1.125
 41
0.75
  1
Is
  7
STANDARD
 72
2
 10
-19.273215945902
 20
3.36774566809119
 11
-19.273215945902
 21
3.36774566809119
  0
TEXT
  8
1
 40
1.125
 41
0.75
  1
Is
  7
STANDARD
 72
2
 10
-19.3151018301646
 20
-18.6443630377452
 11
-19.3151018301646
 21
-18.6443630377452
  0
ENDBLK
  8
0
  0
ENDSEC
  0
SECTION
  2
ENTITIES
  0
INSERT
  8
1
  2
B2266_00995688
 10
21.2848981698354
 20
20.0068630377451
  0
ENDSEC
  0
EOF
