  0
SECTION
  2
HEADER
  9
$LIMMIN
 10
0
 20
0
  9
$LIMMAX
 10
52.5
 20
74.25
  9
$EXTMIN
 10
0
 20
43.7641010284424
  9
$EXTMAX
 10
0
 20
40.0137259960174
  0
ENDSEC
  0
SECTION
  2
TABLES
  0
TABLE
  2
LTYPE
 70
9
  0
LTYPE
  2
CONTINUOUS
 70
64
  3
Solid line
 72
65
 73
0
 40
0
  0
LTYPE
  2
DASHED
 70
64
  3
__ __ __ __ __ __ __ __ __
 72
65
 73
2
 40
0.75
 49
0.5
 49
-0.25
  0
LTYPE
  2
DOT
 70
64
  3
...........................
 72
65
 73
2
 40
0.25
 49
0
 49
-0.25
  0
LTYPE
  2
DASHDOT
 70
64
  3
__ . __ . __ . __ . __ . __ . 
 72
65
 73
4
 40
1
 49
0.5
 49
-0.25
 49
0
 49
-0.25
  0
ENDTAB
  0
TABLE
  2
LAYER
 70
10
  0
LAYER
  2
1
 70
0
 62
7
  6
CONTINUOUS
  0
LAYER
  2
CONNECTIONS
 70
0
 62
-7
  6
CONTINUOUS
  0
ENDTAB
  0
ENDSEC
  0
SECTION
  2
BLOCKS
  0
BLOCK
  8
0
  2
TRICON
 70
0
 10
0
 20
0
  0
POLYLINE
  8
1
 70
1
 66
1
 40
0.5
 41
0.5
  0
VERTEX
  8
1
 10
-0.25
 20
0
 42
1
  0
VERTEX
  8
1
 10
0.25
 20
0
 42
1
  0
SEQEND
  8
1
  0
ENDBLK
  8
0
  0
BLOCK
  8
0
  2
TRICONSMALL
 70
0
 10
0
 20
0
  0
POLYLINE
  8
1
 70
1
 66
1
 40
0.25
 41
0.25
  0
VERTEX
  8
1
 10
-0.125
 20
0
 42
1
  0
VERTEX
  8
1
 10
0.125
 20
0
 42
1
  0
SEQEND
  8
1
  0
ENDBLK
  8
0
  0
BLOCK
  8
0
  2
TRICONCIRCLE
 70
0
 10
0
 20
0
  0
CIRCLE
  8
1
 10
0
 20
0
 40
0.5
  0
ENDBLK
  8
0
  0
BLOCK
  8
0
  2
LCBP0
 70
0
 10
0
 20
0
  0
LINE
  8
1
 10
0
 20
-0.46875
 11
0
 21
0.46875
  0
ENDBLK
  8
0
  0
BLOCK
  8
0
  2
LCBP1
 70
0
 10
0
 20
0
  0
LINE
  8
1
 10
0
 20
-0.625
 11
0
 21
0.625
  0
ENDBLK
  8
0
  0
BLOCK
  8
0
  2
LCBP2
 70
0
 10
0
 20
0
  0
LINE
  8
1
 10
0
 20
-0.9375
 11
0
 21
0.9375
  0
ENDBLK
  8
0
  0
BLOCK
  8
0
  2
LCA1
 70
0
 10
0
 20
0
  0
SOLID
  8
1
 62
7 
 10
0
 20
0
 11
-1.4
 21
-0.275
 12
-1.4
 22
0.275
 13
-1.4
 23
0.275
  0
ENDBLK
  8
0
  0
BLOCK
  8
0
  2
LCA2
 70
0
 10
0
 20
0
  0
SOLID
  8
1
 62
7 
 10
0
 20
0
 11
-1.65
 21
-0.525
 12
-1.65
 22
0.525
 13
-1.65
 23
0.525
  0
ENDBLK
  8
0
  0
BLOCK
  8
0
  2
LCA3
 70
0
 10
0
 20
0
  0
SOLID
  8
1
 62
7 
 10
0
 20
0
 11
-2.15
 21
-1.15
 12
-2.15
 22
1.15
 13
-2.15
 23
1.15
  0
ENDBLK
  8
0
  0
BLOCK
  8
0
  2
LCA1R
 70
0
 10
0
 20
0
  0
SOLID
  8
1
 62
7 
 10
0
 20
0
 11
1.4
 21
-0.275
 12
1.4
 22
0.275
 13
1.4
 23
0.275
  0
ENDBLK
  8
0
  0
BLOCK
  8
0
  2
LCA2R
 70
0
 10
0
 20
0
  0
SOLID
  8
1
 62
7 
 10
0
 20
0
 11
1.65
 21
-0.525
 12
1.65
 22
0.525
 13
1.65
 23
0.525
  0
ENDBLK
  8
0
  0
BLOCK
  8
0
  2
LCA3R
 70
0
 10
0
 20
0
  0
SOLID
  8
1
 62
7 
 10
0
 20
0
 11
2.15
 21
-1.15
 12
2.15
 22
1.15
 13
2.15
 23
1.15
  0
ENDBLK
  8
0
  0
BLOCK
  8
0
  2
B2252_00995687
 70
0
 10
0
 20
0
  0
POLYLINE
  8
1
 66
1
  0
VERTEX
  8
1
 10
-14.1179494857788
 20
17.9931369622549
  0
VERTEX
  8
1
 10
11.8820505142212
 20
17.9931369622549
  0
VERTEX
  8
1
 10
11.8820505142212
 20
-20.0068630377452
  0
VERTEX
  8
1
 10
-14.1179494857788
 20
-20.0068630377452
  0
VERTEX
  8
1
 10
-14.1179494857788
 20
17.9931369622549
  0
SEQEND
  8
1
  0
POLYLINE
  8
1
 70
1
 66
1
 40
0.5
 41
0.5
  0
VERTEX
  8
1
 10
-6.36794948577881
 20
3.99313696225485
 42
1
  0
VERTEX
  8
1
 10
-5.86794948577881
 20
3.99313696225485
 42
1
  0
SEQEND
  8
1
  0
POLYLINE
  8
1
 70
1
 66
1
 40
0.5
 41
0.5
  0
VERTEX
  8
1
 10
-4.36794948577881
 20
-8.00686303774515
 42
1
  0
VERTEX
  8
1
 10
-3.86794948577881
 20
-8.00686303774515
 42
1
  0
SEQEND
  8
1
  0
POLYLINE
  8
1
 70
1
 66
1
 40
0.5
 41
0.5
  0
VERTEX
  8
1
 10
-8.36794948577881
 20
-14.0068630377452
 42
1
  0
VERTEX
  8
1
 10
-7.86794948577881
 20
-14.0068630377452
 42
1
  0
SEQEND
  8
1
  0
POLYLINE
  8
1
 70
1
 66
1
 40
0.5
 41
0.5
  0
VERTEX
  8
1
 10
-10.3679494857788
 20
15.9931369622548
 42
1
  0
VERTEX
  8
1
 10
-9.86794948577881
 20
15.9931369622548
 42
1
  0
SEQEND
  8
1
  0
TEXT
  8
1
 40
1.12499992847443
 41
0.75
  1
B
  7
STANDARD
 72
1
 73
2
 10
-17.78506620725
 20
-3.0851506392161
 11
-17.78506620725
 21
-3.0851506392161
  0
TEXT
  8
1
 40
1.12499992847443
 41
0.75
  1
A
  7
STANDARD
 72
1
 73
2
 10
-17.78506620725
 20
18.9148493607839
 11
-17.78506620725
 21
18.9148493607839
  0
TEXT
  8
1
 40
1.125
 41
0.75
  1
NPN
  7
STANDARD
 72
1
 73
2
 10
3.21493379275003
 20
-8.08515063921611
 11
3.21493379275003
 21
-8.08515063921611
  0
TEXT
  8
1
 40
1.125
 41
0.75
  1
PNP
  7
STANDARD
 72
1
 73
2
 10
3.21493379275003
 20
-5.08515063921608
 11
3.21493379275003
 21
-5.08515063921608
  0
TEXT
  8
1
 40
1.12499992847443
 41
0.75
  1
NPN
  7
STANDARD
 73
2
 10
1.99676275253295
 20
1.91484936078389
 11
1.99676275253295
 21
1.91484936078389
  0
TEXT
  8
1
 40
1.12499992847443
 41
0.75
  1
PNP/IO-Link
  7
STANDARD
 73
2
 10
2.40544333457945
 20
4.91484936078389
 11
2.40544333457945
 21
4.91484936078389
  0
LINE
  8
1
 10
-15.1179494857788
 20
-10.0068630377452
 11
-14.1179494857788
 21
-10.0068630377452
  0
ARC
  8
1
 10
-16.1179494857788
 20
-10.0068630377452
 40
1
 50
270
 51
90
  0
LINE
  8
1
 10
-15.1179494857788
 20
-14.0068630377452
 11
-14.1179494857788
 21
-14.0068630377452
  0
ARC
  8
1
 10
-16.1179494857788
 20
-14.0068630377452
 40
1
 50
270
 51
90
  0
LINE
  8
1
 10
-15.1179494857788
 20
-18.0068630377451
 11
-14.1179494857788
 21
-18.0068630377451
  0
ARC
  8
1
 10
-16.1179494857788
 20
-18.0068630377451
 40
1
 50
270
 51
90
  0
LINE
  8
1
 10
-15.1179494857788
 20
-6.00686303774515
 11
-14.1179494857788
 21
-6.00686303774515
  0
ARC
  8
1
 10
-16.1179494857788
 20
-6.00686303774515
 40
1
 50
270
 51
90
  0
LINE
  8
1
 10
-15.1179494857788
 20
11.9931369622548
 11
-14.1179494857788
 21
11.9931369622548
  0
ARC
  8
1
 10
-16.1179494857788
 20
11.9931369622548
 40
1
 50
270
 51
90
  0
LINE
  8
1
 10
-15.1179494857788
 20
7.99313696225485
 11
-14.1179494857788
 21
7.99313696225485
  0
ARC
  8
1
 10
-16.1179494857788
 20
7.99313696225485
 40
1
 50
270
 51
90
  0
LINE
  8
1
 10
-15.1179494857788
 20
3.99313696225485
 11
-14.1179494857788
 21
3.99313696225485
  0
ARC
  8
1
 10
-16.1179494857788
 20
3.99313696225485
 40
1
 50
270
 51
90
  0
LINE
  8
1
 10
-15.1179494857788
 20
15.9931369622548
 11
-14.1179494857788
 21
15.9931369622548
  0
ARC
  8
1
 10
-16.1179494857788
 20
15.9931369622548
 40
1
 50
270
 51
90
  0
SOLID
  8
1
 10
14.8820505142212
 20
6.24313696225485
 11
16.3820505142212
 21
6.24313696225485
 12
14.8820505142212
 22
5.74313696225485
 13
16.3820505142212
 23
5.74313696225485
  0
SOLID
  8
1
 10
16.3820505142212
 20
5.74313696225485
 11
14.8820505142212
 21
5.74313696225485
 12
14.8820505142212
 22
5.74313696225485
 13
14.8820505142212
 23
6.24313696225485
  0
LINE
  8
1
 10
9.88205051422119
 20
5.99313696225485
 11
14.8820505142212
 21
5.99313696225485
  0
LINE
  8
1
 10
9.88205051422119
 20
-4.00686303774515
 11
14.8820505142212
 21
-4.00686303774515
  0
SOLID
  8
1
 10
14.8820505142212
 20
-3.75686303774515
 11
16.3820505142212
 21
-3.75686303774515
 12
14.8820505142212
 22
-4.25686303774515
 13
16.3820505142212
 23
-4.25686303774515
  0
SOLID
  8
1
 10
16.3820505142212
 20
-4.25686303774515
 11
14.8820505142212
 21
-4.25686303774515
 12
14.8820505142212
 22
-4.25686303774515
 13
14.8820505142212
 23
-3.75686303774515
  0
SOLID
  8
1
 10
14.8993468713571
 20
-13.8355743464062
 11
16.3993468713571
 21
-13.8355743464062
 12
14.8993468713571
 22
-14.3355743464062
 13
16.3993468713571
 23
-14.3355743464062
  0
SOLID
  8
1
 10
16.3993468713571
 20
-14.3355743464062
 11
14.8993468713571
 21
-14.3355743464062
 12
14.8993468713571
 22
-14.3355743464062
 13
14.8993468713571
 23
-13.8355743464062
  0
LINE
  8
1
 10
11.8820505142212
 20
-14.0068630377452
 11
14.8820505142212
 21
-14.0068630377452
  0
SOLID
  8
1
 10
14.8820505142212
 20
16.2431369622548
 11
16.3820505142212
 21
16.2431369622548
 12
14.8820505142212
 22
15.7431369622548
 13
16.3820505142212
 23
15.7431369622548
  0
SOLID
  8
1
 10
16.3820505142212
 20
15.7431369622548
 11
14.8820505142212
 21
15.7431369622548
 12
14.8820505142212
 22
15.7431369622548
 13
14.8820505142212
 23
16.2431369622548
  0
LINE
  8
1
 10
11.8820505142212
 20
15.9931369622548
 11
14.8820505142212
 21
15.9931369622548
  0
SOLID
  8
1
 10
14.8820505142212
 20
16.2431369622548
 11
16.3820505142212
 21
16.2431369622548
 12
14.8820505142212
 22
15.7431369622548
 13
16.3820505142212
 23
15.7431369622548
  0
SOLID
  8
1
 10
16.3820505142212
 20
15.7431369622548
 11
14.8820505142212
 21
15.7431369622548
 12
14.8820505142212
 22
15.7431369622548
 13
14.8820505142212
 23
16.2431369622548
  0
LINE
  8
1
 10
11.8820505142212
 20
15.9931369622548
 11
14.8820505142212
 21
15.9931369622548
  0
SOLID
  8
1
 10
14.8820505142212
 20
16.2431369622548
 11
16.3820505142212
 21
16.2431369622548
 12
14.8820505142212
 22
15.7431369622548
 13
16.3820505142212
 23
15.7431369622548
  0
SOLID
  8
1
 10
16.3820505142212
 20
15.7431369622548
 11
14.8820505142212
 21
15.7431369622548
 12
14.8820505142212
 22
15.7431369622548
 13
14.8820505142212
 23
16.2431369622548
  0
LINE
  8
1
 10
11.8820505142212
 20
15.9931369622548
 11
14.8820505142212
 21
15.9931369622548
  0
LINE
  8
1
 10
-6.11794948577881
 20
5.99313696225485
 11
-2.11794948577881
 21
5.99313696225485
  0
LINE
  8
1
 10
-6.11794948577881
 20
3.99313696225485
 11
-6.11794948577881
 21
5.99313696225485
  0
LINE
  8
1
 10
-14.1179494857788
 20
3.99313696225485
 11
-6.11794948577881
 21
3.99313696225485
  0
LINE
  8
1
 10
-2.11794948577881
 20
-8.00686303774515
 11
-4.11794948577881
 21
-8.00686303774515
  0
LINE
  8
1
 10
-4.11794948577881
 20
1.99313696225485
 11
-4.11794948577881
 21
-6.00686303774515
  0
LINE
  8
1
 10
-2.11794948577881
 20
1.99313696225485
 11
-4.11794948577881
 21
1.99313696225485
  0
LINE
  8
1
 10
-6.11794948577881
 20
3.99313696225485
 11
-6.11794948577881
 21
-4.00686303774515
  0
LINE
  8
1
 10
-8.11794948577881
 20
7.99313696225485
 11
-8.11794948577881
 21
-14.0068630377452
  0
LINE
  8
1
 10
-14.1179494857788
 20
7.99313696225485
 11
-8.11794948577881
 21
7.99313696225485
  0
LINE
  8
1
 10
-14.1179494857788
 20
11.9931369622548
 11
-12.1179494857788
 21
11.9931369622548
  0
LINE
  8
1
 10
-12.1179494857788
 20
12.9931369622548
 11
-12.1179494857788
 21
10.9931369622548
  0
POLYLINE
  8
1
 66
1
  0
VERTEX
  8
1
 10
-14.1179494857788
 20
-6.00686303774515
  0
VERTEX
  8
1
 10
-10.1179494857788
 20
-6.00686303774515
  0
VERTEX
  8
1
 10
-10.1179494857788
 20
15.9931369622549
  0
SEQEND
  8
1
  0
LINE
  8
1
 10
-14.1179494857788
 20
15.9931369622548
 11
11.8820505142212
 21
15.9931369622548
  0
LINE
  8
1
 10
-4.11794948577881
 20
-6.00686303774515
 11
-4.11794948577881
 21
-18.0068630377451
  0
LINE
  8
1
 10
-12.1179494857788
 20
-9.00686303774515
 11
-12.1179494857788
 21
-11.0068630377452
  0
LINE
  8
1
 10
-14.1179494857788
 20
-10.0068630377452
 11
-12.1179494857788
 21
-10.0068630377452
  0
LINE
  8
1
 10
-14.1179494857788
 20
-14.0068630377452
 11
11.8820505142212
 21
-14.0068630377452
  0
LINE
  8
1
 10
-4.11794948577881
 20
-18.0068630377451
 11
-14.1179494857788
 21
-18.0068630377451
  0
LINE
  8
1
 10
-6.11794948577881
 20
-4.00686303774515
 11
-2.11794948577881
 21
-4.00686303774515
  0
POLYLINE
  8
1
 66
1
  0
VERTEX
  8
1
 10
-2.11794948577881
 20
-2.00686303774515
  0
VERTEX
  8
1
 10
9.88205051422119
 20
-2.00686303774515
  0
VERTEX
  8
1
 10
9.88205051422119
 20
-10.0068630377451
  0
VERTEX
  8
1
 10
-2.11794948577881
 20
-10.0068630377451
  0
VERTEX
  8
1
 10
-2.11794948577881
 20
-2.00686303774515
  0
SEQEND
  8
1
  0
POLYLINE
  8
1
 66
1
  0
VERTEX
  8
1
 10
-2.11794948577881
 20
7.99313696225485
  0
VERTEX
  8
1
 10
9.88205051422119
 20
7.99313696225485
  0
VERTEX
  8
1
 10
9.88205051422119
 20
-0.0068630377451484
  0
VERTEX
  8
1
 10
-2.11794948577881
 20
-0.0068630377451484
  0
VERTEX
  8
1
 10
-2.11794948577881
 20
7.99313696225485
  0
SEQEND
  8
1
  0
TEXT
  8
1
 40
1.125
 41
0.75
  1
4
  7
STANDARD
 72
2
 10
14.8820505142212
 20
-13.4443630377452
 11
14.8820505142212
 21
-13.4443630377452
  0
TEXT
  8
1
 40
1.125
 41
0.75
  1
3
  7
STANDARD
 72
2
 10
14.8820505142212
 20
-3.44436303774515
 11
14.8820505142212
 21
-3.44436303774515
  0
TEXT
  8
1
 40
1.125
 41
0.75
  1
2
  7
STANDARD
 72
2
 10
14.8820505142212
 20
6.55563696225485
 11
14.8820505142212
 21
6.55563696225485
  0
TEXT
  8
1
 40
1.125
 41
0.75
  1
1
  7
STANDARD
 72
2
 10
14.8820505142212
 20
16.5556369622548
 11
14.8820505142212
 21
16.5556369622548
  0
TEXT
  8
1
 40
1.125
 41
0.75
  1
0V
  7
STANDARD
 72
2
 10
20.8820505142212
 20
-14.4443630377452
 11
20.8820505142212
 21
-14.4443630377452
  0
TEXT
  8
1
 40
1.125
 41
0.75
  1
+24V
  7
STANDARD
 72
2
 10
21.8820505142212
 20
15.5556369622548
 11
21.8820505142212
 21
15.5556369622548
  0
TEXT
  8
1
 40
1.125
 41
0.75
  1
2
  7
STANDARD
 72
2
 10
-16.6028506708342
 20
-10.9084848495968
 11
-16.6028506708342
 21
-10.9084848495968
  0
TEXT
  8
1
 40
1.125
 41
0.75
  1
1
  7
STANDARD
 72
2
 10
-16.7090213082827
 20
-6.87400062655355
 11
-16.7090213082827
 21
-6.87400062655355
  0
TEXT
  8
1
 40
1.125
 41
0.75
  1
2
  7
STANDARD
 72
2
 10
-16.8151919457312
 20
11.2811783771412
 11
-16.8151919457312
 21
11.2811783771412
  0
TEXT
  8
1
 40
1.125
 41
0.75
  1
3
  7
STANDARD
 72
2
 10
-16.7090213082827
 20
7.34052351664939
 11
-16.7090213082827
 21
7.34052351664939
  0
TEXT
  8
1
 40
1.125
 41
0.75
  1
1
  7
STANDARD
 72
2
 10
-16.9213625831797
 20
15.3156626001845
 11
-16.9213625831797
 21
15.3156626001845
  0
TEXT
  8
1
 40
1.125
 41
0.75
  1
4
  7
STANDARD
 72
2
 10
-16.8151919457312
 20
3.53920174757787
 11
-16.8151919457312
 21
3.53920174757787
  0
TEXT
  8
1
 40
1.125
 41
0.75
  1
3
  7
STANDARD
 72
2
 10
-16.4966800333857
 20
-14.6491397100886
 11
-16.4966800333857
 21
-14.6491397100886
  0
TEXT
  8
1
 40
1.125
 41
0.75
  1
4
  7
STANDARD
 72
2
 10
-16.6028506708342
 20
-18.6504614791601
 11
-16.6028506708342
 21
-18.6504614791601
  0
TEXT
  8
1
 40
1.125
 41
0.75
  1
Us
  7
STANDARD
 72
2
 10
-19.0760636015162
 20
3.56774566809119
 11
-19.0760636015162
 21
3.56774566809119
  0
TEXT
  8
1
 40
1.125
 41
0.75
  1
Us
  7
STANDARD
 72
2
 10
-19.1179494857788
 20
-18.4443630377451
 11
-19.1179494857788
 21
-18.4443630377451
  0
ENDBLK
  8
0
  0
ENDSEC
  0
SECTION
  2
ENTITIES
  0
INSERT
  8
1
  2
B2252_00995687
 10
21.8820505142212
 20
20.0068630377451
  0
ENDSEC
  0
EOF
