  0
SECTION
  2
HEADER
  9
$LIMMIN
 10
0
 20
0
  9
$LIMMAX
 10
52.5
 20
74.25
  9
$EXTMIN
 10
0
 20
30
  9
$EXTMAX
 10
0
 20
49.1288076400757
  0
ENDSEC
  0
SECTION
  2
TABLES
  0
TABLE
  2
LTYPE
 70
9
  0
LTYPE
  2
CONTINUOUS
 70
64
  3
Solid line
 72
65
 73
0
 40
0
  0
LTYPE
  2
DASHED
 70
64
  3
__ __ __ __ __ __ __ __ __
 72
65
 73
2
 40
0.75
 49
0.5
 49
-0.25
  0
LTYPE
  2
DOT
 70
64
  3
...........................
 72
65
 73
2
 40
0.25
 49
0
 49
-0.25
  0
LTYPE
  2
DASHDOT
 70
64
  3
__ . __ . __ . __ . __ . __ . 
 72
65
 73
4
 40
1
 49
0.5
 49
-0.25
 49
0
 49
-0.25
  0
ENDTAB
  0
TABLE
  2
LAYER
 70
10
  0
LAYER
  2
1
 70
0
 62
7
  6
CONTINUOUS
  0
LAYER
  2
CONNECTIONS
 70
0
 62
-7
  6
CONTINUOUS
  0
ENDTAB
  0
ENDSEC
  0
SECTION
  2
BLOCKS
  0
BLOCK
  8
0
  2
TRICON
 70
0
 10
0
 20
0
  0
POLYLINE
  8
1
 70
1
 66
1
 40
0.5
 41
0.5
  0
VERTEX
  8
1
 10
-0.25
 20
0
 42
1
  0
VERTEX
  8
1
 10
0.25
 20
0
 42
1
  0
SEQEND
  8
1
  0
ENDBLK
  8
0
  0
BLOCK
  8
0
  2
TRICONSMALL
 70
0
 10
0
 20
0
  0
POLYLINE
  8
1
 70
1
 66
1
 40
0.25
 41
0.25
  0
VERTEX
  8
1
 10
-0.125
 20
0
 42
1
  0
VERTEX
  8
1
 10
0.125
 20
0
 42
1
  0
SEQEND
  8
1
  0
ENDBLK
  8
0
  0
BLOCK
  8
0
  2
TRICONCIRCLE
 70
0
 10
0
 20
0
  0
CIRCLE
  8
1
 10
0
 20
0
 40
0.5
  0
ENDBLK
  8
0
  0
BLOCK
  8
0
  2
LCBP0
 70
0
 10
0
 20
0
  0
LINE
  8
1
 10
0
 20
-0.46875
 11
0
 21
0.46875
  0
ENDBLK
  8
0
  0
BLOCK
  8
0
  2
LCBP1
 70
0
 10
0
 20
0
  0
LINE
  8
1
 10
0
 20
-0.625
 11
0
 21
0.625
  0
ENDBLK
  8
0
  0
BLOCK
  8
0
  2
LCBP2
 70
0
 10
0
 20
0
  0
LINE
  8
1
 10
0
 20
-0.9375
 11
0
 21
0.9375
  0
ENDBLK
  8
0
  0
BLOCK
  8
0
  2
LCA1
 70
0
 10
0
 20
0
  0
SOLID
  8
1
 62
7 
 10
0
 20
0
 11
-1.4
 21
-0.275
 12
-1.4
 22
0.275
 13
-1.4
 23
0.275
  0
ENDBLK
  8
0
  0
BLOCK
  8
0
  2
LCA2
 70
0
 10
0
 20
0
  0
SOLID
  8
1
 62
7 
 10
0
 20
0
 11
-1.65
 21
-0.525
 12
-1.65
 22
0.525
 13
-1.65
 23
0.525
  0
ENDBLK
  8
0
  0
BLOCK
  8
0
  2
LCA3
 70
0
 10
0
 20
0
  0
SOLID
  8
1
 62
7 
 10
0
 20
0
 11
-2.15
 21
-1.15
 12
-2.15
 22
1.15
 13
-2.15
 23
1.15
  0
ENDBLK
  8
0
  0
BLOCK
  8
0
  2
LCA1R
 70
0
 10
0
 20
0
  0
SOLID
  8
1
 62
7 
 10
0
 20
0
 11
1.4
 21
-0.275
 12
1.4
 22
0.275
 13
1.4
 23
0.275
  0
ENDBLK
  8
0
  0
BLOCK
  8
0
  2
LCA2R
 70
0
 10
0
 20
0
  0
SOLID
  8
1
 62
7 
 10
0
 20
0
 11
1.65
 21
-0.525
 12
1.65
 22
0.525
 13
1.65
 23
0.525
  0
ENDBLK
  8
0
  0
BLOCK
  8
0
  2
LCA3R
 70
0
 10
0
 20
0
  0
SOLID
  8
1
 62
7 
 10
0
 20
0
 11
2.15
 21
-1.15
 12
2.15
 22
1.15
 13
2.15
 23
1.15
  0
ENDBLK
  8
0
  0
BLOCK
  8
0
  2
B218021_00995681
 70
0
 10
0
 20
0
  0
LINE
  8
1
 10
-15
 20
-2.43559617996216
 11
0
 21
-12.4355961799622
  0
LINE
  8
1
 10
-15
 20
-2.43559617996216
 11
-15
 21
-22.4355961799622
  0
LINE
  8
1
 10
-15
 20
-22.4355961799622
 11
0
 21
-12.4355961799622
  0
LINE
  8
1
 10
15
 20
-22.4355961799622
 11
0
 21
-12.4355961799622
  0
LINE
  8
1
 10
15
 20
-2.43559617996216
 11
0
 21
-12.4355961799622
  0
LINE
  8
1
 10
15
 20
-22.4355961799622
 11
15
 21
-2.43559617996216
  0
SOLID
  8
1
 10
9.68418000202595
 20
-3.97116293539415
 11
0.0547145448386506
 21
-10.3761508565019
 12
-1.37015317843155
 22
-8.23395875695481
 13
-1.37015317843155
 23
-8.23395875695481
  0
SOLID
  8
1
 10
-1.37015317843155
 20
-8.23395875695481
 11
8.2593122787558
 21
-1.82897083584706
 12
9.68418000202595
 22
-3.97116293539415
 13
9.68418000202595
 23
-3.97116293539415
  0
SOLID
  8
1
 10
-8.18302928625255
 20
-1.87766699064021
 11
1.45427992254915
 21
-8.27084667485416
 12
0.032039085672101
 22
-10.4147837126654
 13
0.032039085672101
 23
-10.4147837126654
  0
SOLID
  8
1
 10
0.032039085672101
 20
-10.4147837126654
 11
-9.60527012312955
 21
-4.02160402845136
 12
-8.18302928625255
 22
-1.87766699064021
 13
-8.18302928625255
 23
-1.87766699064021
  0
SOLID
  8
1
 10
-0.75
 20
4.56440382003784
 11
0.75
 21
4.56440382003784
 12
-0.75
 22
-7.43559617996216
 13
0.75
 23
-7.43559617996216
  0
SOLID
  8
1
 10
0.75
 20
-7.43559617996216
 11
-0.75
 21
-7.43559617996216
 12
-0.75
 22
-7.43559617996216
 13
-0.75
 23
4.56440382003784
  0
TEXT
  8
1
 40
4.725
 41
0.75
  1
?p
  7
STANDARD
 73
2
 10
-6.00871543884278
 20
-20.0355961799622
 11
-6.00871543884278
 21
-20.0355961799622
  0
POLYLINE
  8
1
 66
1
  0
VERTEX
  8
1
 10
-4
 20
17.5644038200378
  0
VERTEX
  8
1
 10
4
 20
18.5644038200378
  0
VERTEX
  8
1
 10
-4
 20
19.5644038200378
  0
VERTEX
  8
1
 10
4
 20
20.5644038200378
  0
VERTEX
  8
1
 10
-4
 20
21.5644038200378
  0
VERTEX
  8
1
 10
4
 20
22.5644038200378
  0
SEQEND
  8
1
  0
LINE
  8
1
 10
-6
 20
16.5644038200378
 11
6
 21
12.5644038200378
  0
POLYLINE
  8
1
 66
1
  0
VERTEX
  8
1
 10
-6
 20
24.5644038200378
  0
VERTEX
  8
1
 10
6
 20
24.5644038200378
  0
VERTEX
  8
1
 10
6
 20
4.56440382003785
  0
VERTEX
  8
1
 10
-6
 20
4.56440382003785
  0
VERTEX
  8
1
 10
-6
 20
24.5644038200378
  0
SEQEND
  8
1
  0
CIRCLE
  8
CONNECTIONS
 10
-15
 20
-12.4355961799622
 40
0
  0
CIRCLE
  8
CONNECTIONS
 10
15
 20
-12.4355961799622
 40
0
  0
ENDBLK
  8
0
  0
ENDSEC
  0
SECTION
  2
ENTITIES
  0
INSERT
  8
1
  2
B218021_00995681
 10
15
 20
24.5644038200378
  0
ENDSEC
  0
EOF
