  0
SECTION
  2
HEADER
  9
$LIMMIN
 10
0
 20
0
  9
$LIMMAX
 10
52.5
 20
74.25
  9
$EXTMIN
 10
0
 20
109.93422571818
  9
$EXTMAX
 10
0
 20
100.263540267944
  0
ENDSEC
  0
SECTION
  2
TABLES
  0
TABLE
  2
LTYPE
 70
9
  0
LTYPE
  2
CONTINUOUS
 70
64
  3
Solid line
 72
65
 73
0
 40
0
  0
LTYPE
  2
DASHED
 70
64
  3
__ __ __ __ __ __ __ __ __
 72
65
 73
2
 40
0.75
 49
0.5
 49
-0.25
  0
LTYPE
  2
DOT
 70
64
  3
...........................
 72
65
 73
2
 40
0.25
 49
0
 49
-0.25
  0
LTYPE
  2
DASHDOT
 70
64
  3
__ . __ . __ . __ . __ . __ . 
 72
65
 73
4
 40
1
 49
0.5
 49
-0.25
 49
0
 49
-0.25
  0
ENDTAB
  0
TABLE
  2
LAYER
 70
10
  0
LAYER
  2
1
 70
0
 62
7
  6
CONTINUOUS
  0
LAYER
  2
CONNECTIONS
 70
0
 62
-7
  6
CONTINUOUS
  0
ENDTAB
  0
ENDSEC
  0
SECTION
  2
BLOCKS
  0
BLOCK
  8
0
  2
TRICON
 70
0
 10
0
 20
0
  0
POLYLINE
  8
1
 70
1
 66
1
 40
0.5
 41
0.5
  0
VERTEX
  8
1
 10
-0.25
 20
0
 42
1
  0
VERTEX
  8
1
 10
0.25
 20
0
 42
1
  0
SEQEND
  8
1
  0
ENDBLK
  8
0
  0
BLOCK
  8
0
  2
TRICONSMALL
 70
0
 10
0
 20
0
  0
POLYLINE
  8
1
 70
1
 66
1
 40
0.25
 41
0.25
  0
VERTEX
  8
1
 10
-0.125
 20
0
 42
1
  0
VERTEX
  8
1
 10
0.125
 20
0
 42
1
  0
SEQEND
  8
1
  0
ENDBLK
  8
0
  0
BLOCK
  8
0
  2
TRICONCIRCLE
 70
0
 10
0
 20
0
  0
CIRCLE
  8
1
 10
0
 20
0
 40
0.5
  0
ENDBLK
  8
0
  0
BLOCK
  8
0
  2
LCBP0
 70
0
 10
0
 20
0
  0
LINE
  8
1
 10
0
 20
-0.46875
 11
0
 21
0.46875
  0
ENDBLK
  8
0
  0
BLOCK
  8
0
  2
LCBP1
 70
0
 10
0
 20
0
  0
LINE
  8
1
 10
0
 20
-0.625
 11
0
 21
0.625
  0
ENDBLK
  8
0
  0
BLOCK
  8
0
  2
LCBP2
 70
0
 10
0
 20
0
  0
LINE
  8
1
 10
0
 20
-0.9375
 11
0
 21
0.9375
  0
ENDBLK
  8
0
  0
BLOCK
  8
0
  2
LCA1
 70
0
 10
0
 20
0
  0
SOLID
  8
1
 62
7 
 10
0
 20
0
 11
-1.4
 21
-0.275
 12
-1.4
 22
0.275
 13
-1.4
 23
0.275
  0
ENDBLK
  8
0
  0
BLOCK
  8
0
  2
LCA2
 70
0
 10
0
 20
0
  0
SOLID
  8
1
 62
7 
 10
0
 20
0
 11
-1.65
 21
-0.525
 12
-1.65
 22
0.525
 13
-1.65
 23
0.525
  0
ENDBLK
  8
0
  0
BLOCK
  8
0
  2
LCA3
 70
0
 10
0
 20
0
  0
SOLID
  8
1
 62
7 
 10
0
 20
0
 11
-2.15
 21
-1.15
 12
-2.15
 22
1.15
 13
-2.15
 23
1.15
  0
ENDBLK
  8
0
  0
BLOCK
  8
0
  2
LCA1R
 70
0
 10
0
 20
0
  0
SOLID
  8
1
 62
7 
 10
0
 20
0
 11
1.4
 21
-0.275
 12
1.4
 22
0.275
 13
1.4
 23
0.275
  0
ENDBLK
  8
0
  0
BLOCK
  8
0
  2
LCA2R
 70
0
 10
0
 20
0
  0
SOLID
  8
1
 62
7 
 10
0
 20
0
 11
1.65
 21
-0.525
 12
1.65
 22
0.525
 13
1.65
 23
0.525
  0
ENDBLK
  8
0
  0
BLOCK
  8
0
  2
LCA3R
 70
0
 10
0
 20
0
  0
SOLID
  8
1
 62
7 
 10
0
 20
0
 11
2.15
 21
-1.15
 12
2.15
 22
1.15
 13
2.15
 23
1.15
  0
ENDBLK
  8
0
  0
BLOCK
  8
0
  2
B2231_00995670
 70
0
 10
0
 20
0
  0
POLYLINE
  8
1
 66
1
  0
VERTEX
  8
1
 10
-49.1821543375651
 20
49.8682289123535
  0
VERTEX
  8
1
 10
50.8178456624349
 20
49.8682289123535
  0
VERTEX
  8
1
 10
50.8178456624349
 20
-50.1317710876465
  0
VERTEX
  8
1
 10
-49.1821543375651
 20
-50.1317710876465
  0
VERTEX
  8
1
 10
-49.1821543375651
 20
49.8682289123535
  0
SEQEND
  8
1
  0
TEXT
  8
1
 40
10.8
 41
0.75
  1
10
  7
STANDARD
 10
31.0448964436849
 20
17.5651077270508
  0
TEXT
  8
1
 40
10.8
 41
0.75
  1
1
  7
STANDARD
 73
2
 10
15.3410562573148
 20
32.6885838889444
 11
15.3410562573148
 21
32.6885838889444
  0
TEXT
  8
1
 40
10.8
 41
0.75
  1
9
  7
STANDARD
 72
1
 10
0.61352539062499
 20
34.5651077270508
 11
0.61352539062499
 21
34.5651077270508
  0
TEXT
  8
1
 40
10.8
 41
0.75
  1
8
  7
STANDARD
 72
2
 73
2
 10
-14.3907948811849
 20
32.9166683197022
 11
-14.3907948811849
 21
32.9166683197022
  0
TEXT
  8
1
 40
10.8
 41
0.75
  1
12
  7
STANDARD
 72
2
 10
-31.0448964436849
 20
17.5651077270508
 11
-31.0448964436849
 21
17.5651077270508
  0
TEXT
  8
1
 40
10.8
 41
0.75
  1
7
  7
STANDARD
 72
2
 73
2
 10
-29.3907948811849
 20
3.51666831970215
 11
-29.3907948811849
 21
3.51666831970215
  0
TEXT
  8
1
 40
10.8
 41
0.75
  1
6
  7
STANDARD
 72
2
 73
2
 10
-27.1907948811849
 20
-18.0833316802978
 11
-27.1907948811849
 21
-18.0833316802978
  0
TEXT
  8
1
 40
10.8
 41
0.75
  1
5
  7
STANDARD
 72
2
 73
2
 10
-9.25413144429525
 20
-37.759538491567
 11
-9.25413144429525
 21
-37.759538491567
  0
TEXT
  8
1
 40
10.8
 41
0.75
  1
4
  7
STANDARD
 73
2
 10
8.54338971709666
 20
-38.2600916463708
 11
8.54338971709666
 21
-38.2600916463708
  0
TEXT
  8
1
 40
10.8
 41
0.75
  1
11
  7
STANDARD
 73
2
 10
24.8178456624349
 20
-31.4833316802979
 11
24.8178456624349
 21
-31.4833316802979
  0
TEXT
  8
1
 40
10.8
 41
0.75
  1
3
  7
STANDARD
 73
2
 10
29.8178456624349
 20
-14.4587764288322
 11
29.8178456624349
 21
-14.4587764288322
  0
TEXT
  8
1
 40
10.8
 41
0.75
  1
2
  7
STANDARD
 73
2
 10
31.5811563538839
 20
4.51666831970215
 11
31.5811563538839
 21
4.51666831970215
  0
LINE
  8
1
 10
5.8178456624349
 20
-10.1317710876465
 11
26.8178456624349
 21
-24.1317710876465
  0
LINE
  8
1
 10
12.8178456624349
 20
7.86822891235352
 11
32.8178456624349
 21
17.8682289123535
  0
LINE
  8
1
 10
-11.1821543375651
 20
7.86822891235352
 11
-30.1821543375651
 21
17.8682289123535
  0
CIRCLE
  8
1
 10
0.817845662434896
 20
20.0682289123535
 40
4
  0
CIRCLE
  8
1
 10
8.41784566243489
 20
-19.9317710876465
 40
4
  0
CIRCLE
  8
1
 10
-6.7821543375651
 20
-19.9317710876465
 40
4
  0
CIRCLE
  8
1
 10
19.2178456624349
 20
-10.1317710876465
 40
4
  0
CIRCLE
  8
1
 10
-17.5821543375651
 20
-10.1317710876465
 40
4
  0
CIRCLE
  8
1
 10
15.2178456624349
 20
15.8682289123535
 40
4
  0
CIRCLE
  8
1
 10
-13.5821543375651
 20
15.8682289123535
 40
4
  0
CIRCLE
  8
1
 10
0.817845662434896
 20
-7.73177108764648
 40
4
  0
CIRCLE
  8
1
 10
7.8178456624349
 20
5.86822891235352
 40
4
  0
CIRCLE
  8
1
 10
-6.1821543375651
 20
5.86822891235352
 40
4
  0
CIRCLE
  8
1
 10
-19.7821543375651
 20
3.86822891235352
 40
4
  0
CIRCLE
  8
1
 10
21.4178456624349
 20
3.86822891235352
 40
4
  0
CIRCLE
  8
1
 10
0.817845662434896
 20
-0.131771087646484
 40
30
  0
ENDBLK
  8
0
  0
ENDSEC
  0
SECTION
  2
ENTITIES
  0
INSERT
  8
1
  2
B2231_00995670
 10
54.9671147664388
 20
50.1317710876465
  0
ENDSEC
  0
EOF
