  0
SECTION
  2
HEADER
  9
$LIMMIN
 10
0
 20
0
  9
$LIMMAX
 10
52.5
 20
74.25
  9
$EXTMIN
 10
0
 20
101.057907740275
  9
$EXTMAX
 10
0
 20
103.466661453247
  0
ENDSEC
  0
SECTION
  2
TABLES
  0
TABLE
  2
LTYPE
 70
9
  0
LTYPE
  2
CONTINUOUS
 70
64
  3
Solid line
 72
65
 73
0
 40
0
  0
LTYPE
  2
DASHED
 70
64
  3
__ __ __ __ __ __ __ __ __
 72
65
 73
2
 40
0.75
 49
0.5
 49
-0.25
  0
LTYPE
  2
DOT
 70
64
  3
...........................
 72
65
 73
2
 40
0.25
 49
0
 49
-0.25
  0
LTYPE
  2
DASHDOT
 70
64
  3
__ . __ . __ . __ . __ . __ . 
 72
65
 73
4
 40
1
 49
0.5
 49
-0.25
 49
0
 49
-0.25
  0
ENDTAB
  0
TABLE
  2
LAYER
 70
10
  0
LAYER
  2
1
 70
0
 62
7
  6
CONTINUOUS
  0
LAYER
  2
CONNECTIONS
 70
0
 62
-7
  6
CONTINUOUS
  0
ENDTAB
  0
ENDSEC
  0
SECTION
  2
BLOCKS
  0
BLOCK
  8
0
  2
TRICON
 70
0
 10
0
 20
0
  0
POLYLINE
  8
1
 70
1
 66
1
 40
0.5
 41
0.5
  0
VERTEX
  8
1
 10
-0.25
 20
0
 42
1
  0
VERTEX
  8
1
 10
0.25
 20
0
 42
1
  0
SEQEND
  8
1
  0
ENDBLK
  8
0
  0
BLOCK
  8
0
  2
TRICONSMALL
 70
0
 10
0
 20
0
  0
POLYLINE
  8
1
 70
1
 66
1
 40
0.25
 41
0.25
  0
VERTEX
  8
1
 10
-0.125
 20
0
 42
1
  0
VERTEX
  8
1
 10
0.125
 20
0
 42
1
  0
SEQEND
  8
1
  0
ENDBLK
  8
0
  0
BLOCK
  8
0
  2
TRICONCIRCLE
 70
0
 10
0
 20
0
  0
CIRCLE
  8
1
 10
0
 20
0
 40
0.5
  0
ENDBLK
  8
0
  0
BLOCK
  8
0
  2
LCBP0
 70
0
 10
0
 20
0
  0
LINE
  8
1
 10
0
 20
-0.46875
 11
0
 21
0.46875
  0
ENDBLK
  8
0
  0
BLOCK
  8
0
  2
LCBP1
 70
0
 10
0
 20
0
  0
LINE
  8
1
 10
0
 20
-0.625
 11
0
 21
0.625
  0
ENDBLK
  8
0
  0
BLOCK
  8
0
  2
LCBP2
 70
0
 10
0
 20
0
  0
LINE
  8
1
 10
0
 20
-0.9375
 11
0
 21
0.9375
  0
ENDBLK
  8
0
  0
BLOCK
  8
0
  2
LCA1
 70
0
 10
0
 20
0
  0
SOLID
  8
1
 62
7 
 10
0
 20
0
 11
-1.4
 21
-0.275
 12
-1.4
 22
0.275
 13
-1.4
 23
0.275
  0
ENDBLK
  8
0
  0
BLOCK
  8
0
  2
LCA2
 70
0
 10
0
 20
0
  0
SOLID
  8
1
 62
7 
 10
0
 20
0
 11
-1.65
 21
-0.525
 12
-1.65
 22
0.525
 13
-1.65
 23
0.525
  0
ENDBLK
  8
0
  0
BLOCK
  8
0
  2
LCA3
 70
0
 10
0
 20
0
  0
SOLID
  8
1
 62
7 
 10
0
 20
0
 11
-2.15
 21
-1.15
 12
-2.15
 22
1.15
 13
-2.15
 23
1.15
  0
ENDBLK
  8
0
  0
BLOCK
  8
0
  2
LCA1R
 70
0
 10
0
 20
0
  0
SOLID
  8
1
 62
7 
 10
0
 20
0
 11
1.4
 21
-0.275
 12
1.4
 22
0.275
 13
1.4
 23
0.275
  0
ENDBLK
  8
0
  0
BLOCK
  8
0
  2
LCA2R
 70
0
 10
0
 20
0
  0
SOLID
  8
1
 62
7 
 10
0
 20
0
 11
1.65
 21
-0.525
 12
1.65
 22
0.525
 13
1.65
 23
0.525
  0
ENDBLK
  8
0
  0
BLOCK
  8
0
  2
LCA3R
 70
0
 10
0
 20
0
  0
SOLID
  8
1
 62
7 
 10
0
 20
0
 11
2.15
 21
-1.15
 12
2.15
 22
1.15
 13
2.15
 23
1.15
  0
ENDBLK
  8
0
  0
BLOCK
  8
0
  2
B2631_00995669
 70
0
 10
0
 20
0
  0
POLYLINE
  8
1
 66
1
  0
VERTEX
  8
1
 10
-49.4710451761881
 20
51.2333316802979
  0
VERTEX
  8
1
 10
50.5289548238119
 20
51.2333316802979
  0
VERTEX
  8
1
 10
50.5289548238119
 20
-48.7666683197021
  0
VERTEX
  8
1
 10
-49.4710451761881
 20
-48.7666683197021
  0
VERTEX
  8
1
 10
-49.4710451761881
 20
51.2333316802979
  0
SEQEND
  8
1
  0
LINE
  8
1
 10
9.52895482381185
 20
-12.7666683197021
 11
15.8246345520018
 21
-31.1182289123541
  0
TEXT
  8
1
 40
10.8
 41
0.75
  1
10
  7
STANDARD
 72
2
 73
3
 10
16.8932634989421
 20
49.0333316802978
 11
16.8932634989421
 21
49.0333316802978
  0
TEXT
  8
1
 40
10.8
 41
0.75
  1
3
  7
STANDARD
 72
2
 10
-6.87968571980795
 20
29.930210494995
 11
-6.87968571980795
 21
29.930210494995
  0
TEXT
  8
1
 40
10.8
 41
0.75
  1
2
  7
STANDARD
 72
2
 73
2
 10
34.6203142801921
 20
34.3817710876465
 11
34.6203142801921
 21
34.3817710876465
  0
TEXT
  8
1
 40
10.8
 41
0.75
  1
4
  7
STANDARD
 72
2
 73
2
 10
-21.3607953967379
 20
17.6021260642374
 11
-21.3607953967379
 21
17.6021260642374
  0
TEXT
  8
1
 40
10.8
 41
0.75
  1
5
  7
STANDARD
 72
2
 73
3
 10
-25.5840059916175
 20
1.68177108764648
 11
-25.5840059916175
 21
1.68177108764648
  0
TEXT
  8
1
 40
10.8
 41
0.75
  1
11
  7
STANDARD
 72
2
 73
3
 10
-26.6067365010579
 20
-18.4666683197021
 11
-26.6067365010579
 21
-18.4666683197021
  0
TEXT
  8
1
 40
10.8
 41
0.75
  1
6
  7
STANDARD
 72
2
 73
3
 10
-8.58400599161754
 20
-25.8182289123535
 11
-8.58400599161754
 21
-25.8182289123535
  0
TEXT
  8
1
 40
10.8
 41
0.75
  1
7
  7
STANDARD
 72
2
 73
3
 10
7.62031428019206
 20
-31.9666683197021
 11
7.62031428019206
 21
-31.9666683197021
  0
TEXT
  8
1
 40
10.8
 41
0.75
  1
12
  7
STANDARD
 73
3
 10
5.75600560506185
 20
-33.4666683197022
 11
5.75600560506185
 21
-33.4666683197022
  0
TEXT
  8
1
 40
10.8
 41
0.75
  1
8
  7
STANDARD
 73
2
 10
24.5289548238118
 20
-28.1182289123535
 11
24.5289548238118
 21
-28.1182289123535
  0
TEXT
  8
1
 40
10.8
 41
0.75
  1
9
  7
STANDARD
 73
2
 10
34.324634552002
 20
-9.96978950500488
 11
34.324634552002
 21
-9.96978950500488
  0
TEXT
  8
1
 40
10.8
 41
0.75
  1
1
  7
STANDARD
 73
3
 10
31.9501786066636
 20
17.1050111215735
 11
31.9501786066636
 21
17.1050111215735
  0
LINE
  8
1
 10
6.3246345520018
 20
20.8817710876459
 11
4.52895482381185
 21
33.2333316802979
  0
LINE
  8
1
 10
-4.1753654479982
 20
-0.118228912354122
 11
-10.6753654479982
 21
-7.61822891235412
  0
LINE
  8
1
 10
-10.6753654479982
 20
-7.61822891235412
 11
-27.1067365010579
 21
-17.7666683197021
  0
LINE
  8
1
 10
9.8246345520018
 20
12.3817710876459
 11
6.3246345520018
 21
20.8817710876459
  0
ARC
  8
1
 10
25.3289548238118
 20
20.6333316802978
 40
4.96789693934968
 50
128.101625118227
 51
317.899810025802
  0
LINE
  8
1
 10
23.0908958996994
 20
25.3142602476016
 11
22.2634733042141
 21
24.5426568206519
  0
LINE
  8
1
 10
29.8424258855087
 20
18.0743125371055
 11
29.0150032900234
 21
17.3027091101559
  0
LINE
  8
1
 10
-11.9710451761882
 20
15.7333316802976
 11
-11.9710451761882
 21
7.73333168029762
  0
LINE
  8
1
 10
-7.97104517618815
 20
11.7333316802976
 11
-15.9710451761882
 21
11.7333316802976
  0
LINE
  8
1
 10
-14.4710451761882
 20
2.23333168029762
 11
-14.4710451761882
 21
-5.76666831970238
  0
LINE
  8
1
 10
-10.4710451761882
 20
-1.76666831970238
 11
-18.4710451761881
 21
-1.76666831970238
  0
LINE
  8
1
 10
-8.67104517618827
 20
-9.56666831970218
 11
-8.67104517618827
 21
-17.5666683197022
  0
LINE
  8
1
 10
-4.67104517618827
 20
-13.5666683197022
 11
-12.6710451761883
 21
-13.5666683197022
  0
LINE
  8
1
 10
3.52895482381185
 20
-15.7666683197024
 11
3.52895482381185
 21
-23.7666683197024
  0
LINE
  8
1
 10
7.52895482381185
 20
-19.7666683197024
 11
-0.471045176188151
 21
-19.7666683197024
  0
LINE
  8
1
 10
17.5289548238118
 20
-12.7666683197024
 11
17.5289548238118
 21
-20.7666683197024
  0
LINE
  8
1
 10
21.5289548238118
 20
-16.7666683197024
 11
13.5289548238118
 21
-16.7666683197024
  0
LINE
  8
1
 10
-0.471045176188151
 20
8.73333168029762
 11
-0.471045176188151
 21
0.733331680297624
  0
LINE
  8
1
 10
3.52895482381185
 20
4.73333168029762
 11
-4.47104517618815
 21
4.73333168029762
  0
LINE
  8
1
 10
8.52895482381185
 20
-2.26666831970238
 11
8.52895482381185
 21
-10.2666683197024
  0
LINE
  8
1
 10
12.5289548238118
 20
-6.26666831970238
 11
4.52895482381185
 21
-6.26666831970238
  0
LINE
  8
1
 10
26.5289548238118
 20
-1.76666831970238
 11
26.5289548238118
 21
-9.76666831970238
  0
LINE
  8
1
 10
30.5289548238118
 20
-5.76666831970238
 11
22.5289548238118
 21
-5.76666831970238
  0
LINE
  8
1
 10
12.1289548238119
 20
10.7333316802976
 11
12.1289548238119
 21
2.73333168029762
  0
LINE
  8
1
 10
16.1289548238119
 20
6.73333168029762
 11
8.12895482381191
 21
6.73333168029762
  0
LINE
  8
1
 10
26.0289548238118
 20
13.2333316802976
 11
26.0289548238118
 21
5.23333168029762
  0
LINE
  8
1
 10
30.0289548238118
 20
9.23333168029762
 11
22.0289548238118
 21
9.23333168029762
  0
LINE
  8
1
 10
-0.471045176188151
 20
24.7333316802976
 11
-0.471045176188151
 21
16.7333316802976
  0
LINE
  8
1
 10
3.52895482381185
 20
20.7333316802976
 11
-4.47104517618815
 21
20.7333316802976
  0
LINE
  8
1
 10
14.5289548238118
 20
24.7333316802976
 11
14.5289548238118
 21
16.7333316802976
  0
LINE
  8
1
 10
18.5289548238118
 20
20.7333316802976
 11
10.5289548238118
 21
20.7333316802976
  0
CIRCLE
  8
1
 10
5.52895482381185
 20
1.23333168029785
 40
30
  0
ENDBLK
  8
0
  0
ENDSEC
  0
SECTION
  2
ENTITIES
  0
INSERT
  8
1
  2
B2631_00995669
 10
50.5289548238118
 20
51.7333297729492
  0
ENDSEC
  0
EOF
