  0
SECTION
  2
HEADER
  9
$LIMMIN
 10
0
 20
0
  9
$LIMMAX
 10
52.5
 20
74.25
  9
$EXTMIN
 10
0
 20
103.684958521525
  9
$EXTMAX
 10
0
 20
101.366661453247
  0
ENDSEC
  0
SECTION
  2
TABLES
  0
TABLE
  2
LTYPE
 70
9
  0
LTYPE
  2
CONTINUOUS
 70
64
  3
Solid line
 72
65
 73
0
 40
0
  0
LTYPE
  2
DASHED
 70
64
  3
__ __ __ __ __ __ __ __ __
 72
65
 73
2
 40
0.75
 49
0.5
 49
-0.25
  0
LTYPE
  2
DOT
 70
64
  3
...........................
 72
65
 73
2
 40
0.25
 49
0
 49
-0.25
  0
LTYPE
  2
DASHDOT
 70
64
  3
__ . __ . __ . __ . __ . __ . 
 72
65
 73
4
 40
1
 49
0.5
 49
-0.25
 49
0
 49
-0.25
  0
ENDTAB
  0
TABLE
  2
LAYER
 70
10
  0
LAYER
  2
1
 70
0
 62
7
  6
CONTINUOUS
  0
LAYER
  2
CONNECTIONS
 70
0
 62
-7
  6
CONTINUOUS
  0
ENDTAB
  0
ENDSEC
  0
SECTION
  2
BLOCKS
  0
BLOCK
  8
0
  2
TRICON
 70
0
 10
0
 20
0
  0
POLYLINE
  8
1
 70
1
 66
1
 40
0.5
 41
0.5
  0
VERTEX
  8
1
 10
-0.25
 20
0
 42
1
  0
VERTEX
  8
1
 10
0.25
 20
0
 42
1
  0
SEQEND
  8
1
  0
ENDBLK
  8
0
  0
BLOCK
  8
0
  2
TRICONSMALL
 70
0
 10
0
 20
0
  0
POLYLINE
  8
1
 70
1
 66
1
 40
0.25
 41
0.25
  0
VERTEX
  8
1
 10
-0.125
 20
0
 42
1
  0
VERTEX
  8
1
 10
0.125
 20
0
 42
1
  0
SEQEND
  8
1
  0
ENDBLK
  8
0
  0
BLOCK
  8
0
  2
TRICONCIRCLE
 70
0
 10
0
 20
0
  0
CIRCLE
  8
1
 10
0
 20
0
 40
0.5
  0
ENDBLK
  8
0
  0
BLOCK
  8
0
  2
LCBP0
 70
0
 10
0
 20
0
  0
LINE
  8
1
 10
0
 20
-0.46875
 11
0
 21
0.46875
  0
ENDBLK
  8
0
  0
BLOCK
  8
0
  2
LCBP1
 70
0
 10
0
 20
0
  0
LINE
  8
1
 10
0
 20
-0.625
 11
0
 21
0.625
  0
ENDBLK
  8
0
  0
BLOCK
  8
0
  2
LCBP2
 70
0
 10
0
 20
0
  0
LINE
  8
1
 10
0
 20
-0.9375
 11
0
 21
0.9375
  0
ENDBLK
  8
0
  0
BLOCK
  8
0
  2
LCA1
 70
0
 10
0
 20
0
  0
SOLID
  8
1
 62
7 
 10
0
 20
0
 11
-1.4
 21
-0.275
 12
-1.4
 22
0.275
 13
-1.4
 23
0.275
  0
ENDBLK
  8
0
  0
BLOCK
  8
0
  2
LCA2
 70
0
 10
0
 20
0
  0
SOLID
  8
1
 62
7 
 10
0
 20
0
 11
-1.65
 21
-0.525
 12
-1.65
 22
0.525
 13
-1.65
 23
0.525
  0
ENDBLK
  8
0
  0
BLOCK
  8
0
  2
LCA3
 70
0
 10
0
 20
0
  0
SOLID
  8
1
 62
7 
 10
0
 20
0
 11
-2.15
 21
-1.15
 12
-2.15
 22
1.15
 13
-2.15
 23
1.15
  0
ENDBLK
  8
0
  0
BLOCK
  8
0
  2
LCA1R
 70
0
 10
0
 20
0
  0
SOLID
  8
1
 62
7 
 10
0
 20
0
 11
1.4
 21
-0.275
 12
1.4
 22
0.275
 13
1.4
 23
0.275
  0
ENDBLK
  8
0
  0
BLOCK
  8
0
  2
LCA2R
 70
0
 10
0
 20
0
  0
SOLID
  8
1
 62
7 
 10
0
 20
0
 11
1.65
 21
-0.525
 12
1.65
 22
0.525
 13
1.65
 23
0.525
  0
ENDBLK
  8
0
  0
BLOCK
  8
0
  2
LCA3R
 70
0
 10
0
 20
0
  0
SOLID
  8
1
 62
7 
 10
0
 20
0
 11
2.15
 21
-1.15
 12
2.15
 22
1.15
 13
2.15
 23
1.15
  0
ENDBLK
  8
0
  0
BLOCK
  8
0
  2
B2623_00995668
 70
0
 10
0
 20
0
  0
POLYLINE
  8
1
 66
1
  0
VERTEX
  8
1
 10
-48.1575197855632
 20
50.6833316802978
  0
VERTEX
  8
1
 10
51.8424802144368
 20
50.6833316802978
  0
VERTEX
  8
1
 10
51.8424802144368
 20
-49.3166683197022
  0
VERTEX
  8
1
 10
-48.1575197855632
 20
-49.3166683197022
  0
VERTEX
  8
1
 10
-48.1575197855632
 20
50.6833316802978
  0
SEQEND
  8
1
  0
LINE
  8
1
 10
4.34248021443682
 20
-10.316668319702
 11
24.155683650033
 21
-30.9298717552983
  0
LINE
  8
1
 10
-10.0575197855631
 20
-9.71666831970212
 11
-29.4886415532511
 21
-25.4466240364001
  0
LINE
  8
1
 10
-5.65751978556318
 20
0.683331680297973
 11
-10.0575197855631
 21
-9.71666831970212
  0
LINE
  8
1
 10
11.3424802144368
 20
9.18333168029797
 11
26.265462377953
 21
31.7184808715579
  0
TEXT
  8
1
 40
10.8
 41
0.75
  1
5
  7
STANDARD
 73
2
 10
32.9424802144369
 20
-4.06822891235349
 11
32.9424802144369
 21
-4.06822891235349
  0
TEXT
  8
1
 40
10.8
 41
0.75
  1
4
  7
STANDARD
 73
3
 10
30.0680242690986
 20
26.0065717142248
 11
30.0680242690986
 21
26.0065717142248
  0
TEXT
  8
1
 40
10.8
 41
0.75
  1
11
  7
STANDARD
 73
3
 10
25.1695309956869
 20
45.5833316802979
 11
25.1695309956869
 21
45.5833316802979
  0
TEXT
  8
1
 40
10.8
 41
0.75
  1
3
  7
STANDARD
 73
2
 10
6.34248021443697
 20
37.7563263391122
 11
6.34248021443697
 21
37.7563263391122
  0
TEXT
  8
1
 40
10.8
 41
0.75
  1
2
  7
STANDARD
 72
2
 10
-2.10284963773393
 20
32.5802104949951
 11
-2.10284963773393
 21
32.5802104949951
  0
TEXT
  8
1
 40
10.8
 41
0.75
  1
1
  7
STANDARD
 72
2
 73
2
 10
-27.7429497343028
 20
10.5036866568888
 11
-27.7429497343028
 21
10.5036866568888
  0
TEXT
  8
1
 40
10.8
 41
0.75
  1
9
  7
STANDARD
 72
2
 73
3
 10
-28.4661603291829
 20
-3.41666831970212
 11
-28.4661603291829
 21
-3.41666831970212
  0
TEXT
  8
1
 40
10.8
 41
0.75
  1
10
  7
STANDARD
 72
2
 73
3
 10
-27.9202618916829
 20
-25.4166683197021
 11
-27.9202618916829
 21
-25.4166683197021
  0
TEXT
  8
1
 40
10.8
 41
0.75
  1
8
  7
STANDARD
 72
2
 73
3
 10
-7.46616032918291
 20
-28.4166683197021
 11
-7.46616032918291
 21
-28.4166683197021
  0
TEXT
  8
1
 40
10.8
 41
0.75
  1
7
  7
STANDARD
 73
3
 10
0.942480214436879
 20
-31.4166683197021
 11
0.942480214436879
 21
-31.4166683197021
  0
TEXT
  8
1
 40
10.8
 41
0.75
  1
12
  7
STANDARD
 73
3
 10
18.9424802144369
 20
-32.4166683197021
 11
18.9424802144369
 21
-32.4166683197021
  0
TEXT
  8
1
 40
10.8
 41
0.75
  1
6
  7
STANDARD
 73
2
 10
24.9424802144369
 20
-24.0682289123535
 11
24.9424802144369
 21
-24.0682289123535
  0
LINE
  8
1
 10
-22.3696258385897
 20
18.1920860574864
 11
-21.6652148489624
 21
17.5075016405115
  0
LINE
  8
1
 10
-15.375250754728
 20
25.244149247533
 11
-14.5889620610896
 21
24.4306690140568
  0
ARC
  8
1
 10
-17.8530798224331
 20
20.6856008918351
 40
4.96789693934968
 50
219.127135373715
 51
48.9253202812904
  0
CIRCLE
  8
1
 10
4.84248021443682
 20
-20.3166683197024
 40
4
  0
CIRCLE
  8
1
 10
-9.15751978556318
 20
-17.3166683197024
 40
4
  0
CIRCLE
  8
1
 10
17.042480214437
 20
-14.1166683197022
 40
4
  0
CIRCLE
  8
1
 10
-0.157519785563181
 20
-6.81666831970241
 40
4
  0
CIRCLE
  8
1
 10
-18.1575197855632
 20
-6.31666831970241
 40
4
  0
CIRCLE
  8
1
 10
22.8424802144368
 20
-2.31666831970241
 40
4
  0
CIRCLE
  8
1
 10
8.84248021443682
 20
4.18333168029759
 40
4
  0
CIRCLE
  8
1
 10
-3.75751978556317
 20
6.18333168029759
 40
4
  0
CIRCLE
  8
1
 10
-17.6575197855632
 20
8.68333168029759
 40
4
  0
CIRCLE
  8
1
 10
-6.15751978556318
 20
20.1833316802976
 40
4
  0
CIRCLE
  8
1
 10
20.3424802144368
 20
11.1833316802976
 40
4
  0
CIRCLE
  8
1
 10
8.84248021443682
 20
20.1833316802976
 40
4
  0
CIRCLE
  8
1
 10
1.84248021443682
 20
0.683331680297783
 40
30
  0
ENDBLK
  8
0
  0
ENDSEC
  0
SECTION
  2
ENTITIES
  0
INSERT
  8
1
  2
B2623_00995668
 10
51.8424802144368
 20
50.6833297729492
  0
ENDSEC
  0
EOF
