  0
SECTION
  2
HEADER
  9
$LIMMIN
 10
0
 20
0
  9
$LIMMAX
 10
52.5
 20
74.25
  9
$EXTMIN
 10
0
 20
193.160208384196
  9
$EXTMAX
 10
0
 20
46
  0
ENDSEC
  0
SECTION
  2
TABLES
  0
TABLE
  2
LTYPE
 70
9
  0
LTYPE
  2
CONTINUOUS
 70
64
  3
Solid line
 72
65
 73
0
 40
0
  0
LTYPE
  2
DASHED
 70
64
  3
__ __ __ __ __ __ __ __ __
 72
65
 73
2
 40
0.75
 49
0.5
 49
-0.25
  0
LTYPE
  2
DOT
 70
64
  3
...........................
 72
65
 73
2
 40
0.25
 49
0
 49
-0.25
  0
LTYPE
  2
DASHDOT
 70
64
  3
__ . __ . __ . __ . __ . __ . 
 72
65
 73
4
 40
1
 49
0.5
 49
-0.25
 49
0
 49
-0.25
  0
ENDTAB
  0
TABLE
  2
LAYER
 70
10
  0
LAYER
  2
1
 70
0
 62
7
  6
CONTINUOUS
  0
LAYER
  2
CONNECTIONS
 70
0
 62
-7
  6
CONTINUOUS
  0
ENDTAB
  0
ENDSEC
  0
SECTION
  2
BLOCKS
  0
BLOCK
  8
0
  2
TRICON
 70
0
 10
0
 20
0
  0
POLYLINE
  8
1
 70
1
 66
1
 40
0.5
 41
0.5
  0
VERTEX
  8
1
 10
-0.25
 20
0
 42
1
  0
VERTEX
  8
1
 10
0.25
 20
0
 42
1
  0
SEQEND
  8
1
  0
ENDBLK
  8
0
  0
BLOCK
  8
0
  2
TRICONSMALL
 70
0
 10
0
 20
0
  0
POLYLINE
  8
1
 70
1
 66
1
 40
0.25
 41
0.25
  0
VERTEX
  8
1
 10
-0.125
 20
0
 42
1
  0
VERTEX
  8
1
 10
0.125
 20
0
 42
1
  0
SEQEND
  8
1
  0
ENDBLK
  8
0
  0
BLOCK
  8
0
  2
TRICONCIRCLE
 70
0
 10
0
 20
0
  0
CIRCLE
  8
1
 10
0
 20
0
 40
0.5
  0
ENDBLK
  8
0
  0
BLOCK
  8
0
  2
LCBP0
 70
0
 10
0
 20
0
  0
LINE
  8
1
 10
0
 20
-0.46875
 11
0
 21
0.46875
  0
ENDBLK
  8
0
  0
BLOCK
  8
0
  2
LCBP1
 70
0
 10
0
 20
0
  0
LINE
  8
1
 10
0
 20
-0.625
 11
0
 21
0.625
  0
ENDBLK
  8
0
  0
BLOCK
  8
0
  2
LCBP2
 70
0
 10
0
 20
0
  0
LINE
  8
1
 10
0
 20
-0.9375
 11
0
 21
0.9375
  0
ENDBLK
  8
0
  0
BLOCK
  8
0
  2
LCA1
 70
0
 10
0
 20
0
  0
SOLID
  8
1
 62
7 
 10
0
 20
0
 11
-1.4
 21
-0.275
 12
-1.4
 22
0.275
 13
-1.4
 23
0.275
  0
ENDBLK
  8
0
  0
BLOCK
  8
0
  2
LCA2
 70
0
 10
0
 20
0
  0
SOLID
  8
1
 62
7 
 10
0
 20
0
 11
-1.65
 21
-0.525
 12
-1.65
 22
0.525
 13
-1.65
 23
0.525
  0
ENDBLK
  8
0
  0
BLOCK
  8
0
  2
LCA3
 70
0
 10
0
 20
0
  0
SOLID
  8
1
 62
7 
 10
0
 20
0
 11
-2.15
 21
-1.15
 12
-2.15
 22
1.15
 13
-2.15
 23
1.15
  0
ENDBLK
  8
0
  0
BLOCK
  8
0
  2
LCA1R
 70
0
 10
0
 20
0
  0
SOLID
  8
1
 62
7 
 10
0
 20
0
 11
1.4
 21
-0.275
 12
1.4
 22
0.275
 13
1.4
 23
0.275
  0
ENDBLK
  8
0
  0
BLOCK
  8
0
  2
LCA2R
 70
0
 10
0
 20
0
  0
SOLID
  8
1
 62
7 
 10
0
 20
0
 11
1.65
 21
-0.525
 12
1.65
 22
0.525
 13
1.65
 23
0.525
  0
ENDBLK
  8
0
  0
BLOCK
  8
0
  2
LCA3R
 70
0
 10
0
 20
0
  0
SOLID
  8
1
 62
7 
 10
0
 20
0
 11
2.15
 21
-1.15
 12
2.15
 22
1.15
 13
2.15
 23
1.15
  0
ENDBLK
  8
0
  0
BLOCK
  8
0
  2
B2981_00995646
 70
0
 10
0
 20
0
  0
POLYLINE
  8
1
 66
1
  0
VERTEX
  8
1
 10
-95.4198954900106
 20
23
  0
VERTEX
  8
1
 10
96.5801045099894
 20
23
  0
VERTEX
  8
1
 10
96.5801045099894
 20
-23
  0
VERTEX
  8
1
 10
-95.4198954900106
 20
-23
  0
VERTEX
  8
1
 10
-95.4198954900106
 20
23
  0
SEQEND
  8
1
  0
TEXT
  8
1
 40
6
 41
0.75
  1
31
  7
STANDARD
 10
80.3148781458537
 20
-13.4505200386047
  0
TEXT
  8
1
 40
6.075
 41
0.75
  1
44
  7
STANDARD
 72
2
 10
-79.2899827957153
 20
-13.4130200386047
 11
-79.2899827957153
 21
-13.4130200386047
  0
TEXT
  8
1
 40
6.075
 41
0.75
  1
16
  7
STANDARD
 10
80.3148781458537
 20
-4.41302003860473
  0
TEXT
  8
1
 40
6.075
 41
0.75
  1
30
  7
STANDARD
 72
2
 10
-81.2899827957153
 20
-4.41302003860473
 11
-81.2899827957153
 21
-4.41302003860473
  0
TEXT
  8
1
 40
6.075
 41
0.75
  1
1
  7
STANDARD
 10
84.3148781458537
 20
5.58697996139526
  0
TEXT
  8
1
 40
6
 41
0.75
  1
15
  7
STANDARD
 72
2
 10
-83.2899827957153
 20
5.54947996139526
 11
-83.2899827957153
 21
5.54947996139526
  0
CIRCLE
  8
1
 10
65.5801045099894
 20
9
 40
3
  0
CIRCLE
  8
1
 10
-24.4198954900106
 20
9
 40
3
  0
CIRCLE
  8
1
 10
-34.4198954900106
 20
9
 40
3
  0
CIRCLE
  8
1
 10
-44.4198954900106
 20
9
 40
3
  0
CIRCLE
  8
1
 10
-54.4198954900106
 20
9
 40
3
  0
CIRCLE
  8
1
 10
-64.4198954900106
 20
9
 40
3
  0
CIRCLE
  8
1
 10
-74.4198954900106
 20
9
 40
3
  0
CIRCLE
  8
1
 10
55.5801045099894
 20
9
 40
3
  0
CIRCLE
  8
1
 10
45.5801045099894
 20
9
 40
3
  0
CIRCLE
  8
1
 10
35.5801045099894
 20
9
 40
3
  0
CIRCLE
  8
1
 10
25.5801045099894
 20
9
 40
3
  0
CIRCLE
  8
1
 10
15.5801045099894
 20
9
 40
3
  0
CIRCLE
  8
1
 10
5.58010450998942
 20
9
 40
3
  0
CIRCLE
  8
1
 10
-4.41989549001058
 20
9
 40
3
  0
CIRCLE
  8
1
 10
-14.4198954900106
 20
9
 40
3
  0
CIRCLE
  8
1
 10
65.5801045099894
 20
-10
 40
3
  0
CIRCLE
  8
1
 10
70.5801045099894
 20
-1
 40
3
  0
CIRCLE
  8
1
 10
-14.4198954900106
 20
-10
 40
3
  0
CIRCLE
  8
1
 10
-24.4198954900106
 20
-10
 40
3
  0
CIRCLE
  8
1
 10
-34.4198954900106
 20
-10
 40
3
  0
CIRCLE
  8
1
 10
-44.4198954900106
 20
-10
 40
3
  0
CIRCLE
  8
1
 10
-54.4198954900106
 20
-10
 40
3
  0
CIRCLE
  8
1
 10
-64.4198954900106
 20
-10
 40
3
  0
CIRCLE
  8
1
 10
-9.41989549001058
 20
-1
 40
3
  0
CIRCLE
  8
1
 10
-19.4198954900106
 20
-1
 40
3
  0
CIRCLE
  8
1
 10
-29.4198954900106
 20
-1
 40
3
  0
CIRCLE
  8
1
 10
-39.4198954900106
 20
-1
 40
3
  0
CIRCLE
  8
1
 10
-49.4198954900106
 20
-1
 40
3
  0
CIRCLE
  8
1
 10
-59.4198954900106
 20
-1
 40
3
  0
CIRCLE
  8
1
 10
-69.4198954900106
 20
-1
 40
3
  0
CIRCLE
  8
1
 10
55.61028961202
 20
-9.92506111859503
 40
3
  0
CIRCLE
  8
1
 10
45.61028961202
 20
-9.92506111859503
 40
3
  0
CIRCLE
  8
1
 10
35.61028961202
 20
-9.92506111859503
 40
3
  0
CIRCLE
  8
1
 10
25.61028961202
 20
-9.92506111859503
 40
3
  0
CIRCLE
  8
1
 10
15.61028961202
 20
-9.92506111859503
 40
3
  0
CIRCLE
  8
1
 10
5.61028961202002
 20
-9.92506111859503
 40
3
  0
CIRCLE
  8
1
 10
-4.38971038797998
 20
-9.92506111859503
 40
3
  0
CIRCLE
  8
1
 10
60.5801045099894
 20
-1
 40
3
  0
CIRCLE
  8
1
 10
50.5801045099894
 20
-1
 40
3
  0
CIRCLE
  8
1
 10
40.5801045099894
 20
-1
 40
3
  0
CIRCLE
  8
1
 10
30.5801045099894
 20
-1
 40
3
  0
CIRCLE
  8
1
 10
20.5801045099894
 20
-1
 40
3
  0
CIRCLE
  8
1
 10
10.5801045099894
 20
-1
 40
3
  0
CIRCLE
  8
1
 10
0.580104509989421
 20
-1
 40
3
  0
LINE
  8
1
 10
-80.4198954900106
 20
8.51565802384888
 11
-75.2580326091784
 21
-14.7521407189521
  0
POLYLINE
  8
1
 70
0
 66
1
 40
0
 41
0
  0
VERTEX
  8
1
 10
-75.2580326091784
 20
-14.7521407189521
 42
0
 70
2
 50
90
  0
VERTEX
  8
1
 10
-75.0950686161043
 20
-15.1637594268695
 42
0
 70
2
 50
90
  0
VERTEX
  8
1
 10
-74.9093461166215
 20
-15.5657339342745
 42
0
 70
2
 50
90
  0
VERTEX
  8
1
 10
-74.7014394336881
 20
-15.9568211866701
 42
0
 70
2
 50
90
  0
VERTEX
  8
1
 10
-74.4719914919981
 20
-16.3358117969963
 42
0
 70
2
 50
90
  0
VERTEX
  8
1
 10
-74.2217118298192
 20
-16.7015337855036
 42
0
 70
2
 50
90
  0
VERTEX
  8
1
 10
-73.9513744048375
 20
-17.0528562039502
 42
0
 70
2
 50
90
  0
VERTEX
  8
1
 10
-73.6618152007921
 20
-17.3886926329138
 42
0
 70
2
 50
90
  0
VERTEX
  8
1
 10
-73.3539296423036
 20
-17.7080045414043
 42
0
 70
2
 50
90
  0
VERTEX
  8
1
 10
-73.0286698258878
 20
-18.0098044983868
 42
0
 70
2
 50
90
  0
VERTEX
  8
1
 10
-72.6870415757202
 20
-18.2931592262859
 42
0
 70
2
 50
90
  0
VERTEX
  8
1
 10
-72.3301013332537
 20
-18.5571924870262
 42
0
 70
2
 50
90
  0
VERTEX
  8
1
 10
-71.9589528903091
 20
-18.8010877916861
 42
0
 70
2
 50
90
  0
VERTEX
  8
1
 10
-71.5747439757414
 20
-19.0240909253847
 42
0
 70
2
 50
90
  0
VERTEX
  8
1
 10
-71.1786627062349
 20
-19.2255122795943
 42
0
 70
2
 50
90
  0
VERTEX
  8
1
 10
-70.7719339122058
 20
-19.4047289846666
 42
0
 70
2
 50
90
  0
VERTEX
  8
1
 10
-70.3558153501713
 20
-19.5611868359765
 42
0
 70
2
 50
90
  0
VERTEX
  8
1
 10
-69.9315938132992
 20
-19.6944020077289
 42
0
 70
2
 50
90
  0
VERTEX
  8
1
 10
-69.5005811521655
 20
-19.8039625491279
 42
0
 70
2
 50
90
  0
VERTEX
  8
1
 10
-69.0641102180252
 20
-19.8895296582813
 42
0
 70
2
 50
90
  0
VERTEX
  8
1
 10
-68.6235307411408
 20
-19.9508387299025
 42
0
 70
2
 50
90
  0
VERTEX
  8
1
 10
-68.1802051569153
 20
-19.9877001735675
 42
0
 70
2
 50
90
  0
VERTEX
  8
1
 10
-67.7355043927355
 20
-20
 42
0
 70
2
 50
90
  0
SEQEND
  8
1
  0
ARC
  8
1
 10
-72.7355043927356
 20
10.9549475647031
 40
8.06225774829856
 50
90
 51
197.611225192215
  0
LINE
  8
1
 10
81.8417999574072
 20
8.53736021084126
 11
76.7844484856327
 21
-14.5108692912477
  0
ARC
  8
1
 10
69.1886907615956
 20
-12
 40
8
 50
270
 51
341.708074025052
  0
ARC
  8
1
 10
74.1886907615956
 20
11
 40
8.03956933511768
 50
342.162711720608
 51
90
  0
LINE
  8
1
 10
-68.8198954900106
 20
-20
 11
69.1801045099894
 21
-20
  0
LINE
  8
1
 10
-73.8198954900106
 20
19
 11
74.1801045099894
 21
19
  0
ENDBLK
  8
0
  0
ENDSEC
  0
SECTION
  2
ENTITIES
  0
INSERT
  8
1
  2
B2981_00995646
 10
96.5801045099894
 20
23
  0
ENDSEC
  0
EOF
