  0
SECTION
  2
HEADER
  9
$LIMMIN
 10
0
 20
0
  9
$LIMMAX
 10
52.5
 20
74.25
  9
$EXTMIN
 10
0
 20
60
  9
$EXTMAX
 10
0
 20
19.0150903741068
  0
ENDSEC
  0
SECTION
  2
TABLES
  0
TABLE
  2
LTYPE
 70
9
  0
LTYPE
  2
CONTINUOUS
 70
64
  3
Solid line
 72
65
 73
0
 40
0
  0
LTYPE
  2
DASHED
 70
64
  3
__ __ __ __ __ __ __ __ __
 72
65
 73
2
 40
0.75
 49
0.5
 49
-0.25
  0
LTYPE
  2
DOT
 70
64
  3
...........................
 72
65
 73
2
 40
0.25
 49
0
 49
-0.25
  0
LTYPE
  2
DASHDOT
 70
64
  3
__ . __ . __ . __ . __ . __ . 
 72
65
 73
4
 40
1
 49
0.5
 49
-0.25
 49
0
 49
-0.25
  0
ENDTAB
  0
TABLE
  2
LAYER
 70
10
  0
LAYER
  2
1
 70
0
 62
7
  6
CONTINUOUS
  0
LAYER
  2
CONNECTIONS
 70
0
 62
-7
  6
CONTINUOUS
  0
ENDTAB
  0
ENDSEC
  0
SECTION
  2
BLOCKS
  0
BLOCK
  8
0
  2
TRICON
 70
0
 10
0
 20
0
  0
POLYLINE
  8
1
 70
1
 66
1
 40
0.5
 41
0.5
  0
VERTEX
  8
1
 10
-0.25
 20
0
 42
1
  0
VERTEX
  8
1
 10
0.25
 20
0
 42
1
  0
SEQEND
  8
1
  0
ENDBLK
  8
0
  0
BLOCK
  8
0
  2
TRICONSMALL
 70
0
 10
0
 20
0
  0
POLYLINE
  8
1
 70
1
 66
1
 40
0.25
 41
0.25
  0
VERTEX
  8
1
 10
-0.125
 20
0
 42
1
  0
VERTEX
  8
1
 10
0.125
 20
0
 42
1
  0
SEQEND
  8
1
  0
ENDBLK
  8
0
  0
BLOCK
  8
0
  2
TRICONCIRCLE
 70
0
 10
0
 20
0
  0
CIRCLE
  8
1
 10
0
 20
0
 40
0.5
  0
ENDBLK
  8
0
  0
BLOCK
  8
0
  2
LCBP0
 70
0
 10
0
 20
0
  0
LINE
  8
1
 10
0
 20
-0.46875
 11
0
 21
0.46875
  0
ENDBLK
  8
0
  0
BLOCK
  8
0
  2
LCBP1
 70
0
 10
0
 20
0
  0
LINE
  8
1
 10
0
 20
-0.625
 11
0
 21
0.625
  0
ENDBLK
  8
0
  0
BLOCK
  8
0
  2
LCBP2
 70
0
 10
0
 20
0
  0
LINE
  8
1
 10
0
 20
-0.9375
 11
0
 21
0.9375
  0
ENDBLK
  8
0
  0
BLOCK
  8
0
  2
LCA1
 70
0
 10
0
 20
0
  0
SOLID
  8
1
 62
7 
 10
0
 20
0
 11
-1.4
 21
-0.275
 12
-1.4
 22
0.275
 13
-1.4
 23
0.275
  0
ENDBLK
  8
0
  0
BLOCK
  8
0
  2
LCA2
 70
0
 10
0
 20
0
  0
SOLID
  8
1
 62
7 
 10
0
 20
0
 11
-1.65
 21
-0.525
 12
-1.65
 22
0.525
 13
-1.65
 23
0.525
  0
ENDBLK
  8
0
  0
BLOCK
  8
0
  2
LCA3
 70
0
 10
0
 20
0
  0
SOLID
  8
1
 62
7 
 10
0
 20
0
 11
-2.15
 21
-1.15
 12
-2.15
 22
1.15
 13
-2.15
 23
1.15
  0
ENDBLK
  8
0
  0
BLOCK
  8
0
  2
LCA1R
 70
0
 10
0
 20
0
  0
SOLID
  8
1
 62
7 
 10
0
 20
0
 11
1.4
 21
-0.275
 12
1.4
 22
0.275
 13
1.4
 23
0.275
  0
ENDBLK
  8
0
  0
BLOCK
  8
0
  2
LCA2R
 70
0
 10
0
 20
0
  0
SOLID
  8
1
 62
7 
 10
0
 20
0
 11
1.65
 21
-0.525
 12
1.65
 22
0.525
 13
1.65
 23
0.525
  0
ENDBLK
  8
0
  0
BLOCK
  8
0
  2
LCA3R
 70
0
 10
0
 20
0
  0
SOLID
  8
1
 62
7 
 10
0
 20
0
 11
2.15
 21
-1.15
 12
2.15
 22
1.15
 13
2.15
 23
1.15
  0
ENDBLK
  8
0
  0
BLOCK
  8
0
  2
B189347_00995437
 70
0
 10
0
 20
0
  0
TEXT
  8
1
 40
2.475
 41
0.75
  1
12
  7
STANDARD
 10
23.4676568349202
 20
2.1854896207876
  0
TEXT
  8
1
 40
2.475
 41
0.75
  1
14
  7
STANDARD
 72
2
 10
-23.6676568349202
 20
1.9854896207876
 11
-23.6676568349202
 21
1.9854896207876
  0
TEXT
  8
1
 40
2.475
 41
0.75
  1
(14)
  7
STANDARD
 72
2
 10
-24.0615881601969
 20
-7.52557872332862
 11
-24.0615881601969
 21
-7.52557872332862
  0
LINE
  8
1
 10
-23.9587391535441
 20
-3.46307935911149
 11
-23.9587391535441
 21
-7.46307935911149
  0
TEXT
  8
1
 40
2.475
 41
0.75
  1
1
  7
STANDARD
 72
2
 10
-0.0347789764404447
 20
-10.2700451870534
 11
-0.0347789764404447
 21
-10.2700451870534
  0
TEXT
  8
1
 40
2.475
 41
0.75
  1
5
  7
STANDARD
 72
2
 10
-4.83477897644044
 20
-10.2700451870534
 11
-4.83477897644044
 21
-10.2700451870534
  0
TEXT
  8
1
 40
2.475
 41
0.75
  1
3
  7
STANDARD
 10
3.96522102355955
 20
-10.2700451870534
  0
LINE
  8
1
 10
3.96522102355955
 20
-5.50754518705339
 11
3.96522102355955
 21
-9.50754518705339
  0
LINE
  8
1
 10
-0.0347789764404448
 20
-5.50754518705339
 11
-0.0347789764404448
 21
-9.50754518705339
  0
LINE
  8
1
 10
-4.03477897644044
 20
-5.50754518705339
 11
-4.03477897644044
 21
-9.50754518705339
  0
TEXT
  8
1
 40
2.475
 41
0.75
  1
4
  7
STANDARD
 72
2
 10
-4.21864072579095
 20
5.6966007318987
 11
-4.21864072579095
 21
5.6966007318987
  0
TEXT
  8
1
 40
2.475
 41
0.75
  1
2
  7
STANDARD
 72
2
 10
3.84474725235113
 20
5.6966007318987
 11
3.84474725235113
 21
5.6966007318987
  0
LINE
  8
1
 10
-4.02047440699134
 20
8.4591007318987
 11
-4.02047440699134
 21
4.4591007318987
  0
LINE
  8
1
 10
3.97952559300866
 20
8.4591007318987
 11
3.97952559300866
 21
4.4591007318987
  0
LINE
  8
1
 10
18
 20
8.49245481294661
 11
18
 21
4.49245481294661
  0
LINE
  8
1
 10
-18
 20
8.49245481294661
 11
-18
 21
4.49245481294661
  0
LINE
  8
1
 10
28
 20
-3.50754518705339
 11
26
 21
0.492454812946613
  0
POLYLINE
  8
1
 66
1
  0
VERTEX
  8
1
 10
30
 20
0.492454812946612
  0
VERTEX
  8
1
 10
24
 20
0.492454812946612
  0
VERTEX
  8
1
 10
24
 20
-3.50754518705339
  0
VERTEX
  8
1
 10
30
 20
-3.50754518705339
  0
VERTEX
  8
1
 10
30
 20
0.492454812946612
  0
SEQEND
  8
1
  0
LINE
  8
1
 10
-28
 20
-3.50754518705339
 11
-26
 21
0.492454812946613
  0
POLYLINE
  8
1
 66
1
  0
VERTEX
  8
1
 10
-30
 20
0.492454812946612
  0
VERTEX
  8
1
 10
-24
 20
0.492454812946612
  0
VERTEX
  8
1
 10
-24
 20
-3.50754518705339
  0
VERTEX
  8
1
 10
-30
 20
-3.50754518705339
  0
VERTEX
  8
1
 10
-30
 20
0.492454812946612
  0
SEQEND
  8
1
  0
LINE
  8
1
 10
22.0685792349727
 20
9.50754518705339
 11
22.0685792349727
 21
7.50754518705339
  0
POLYLINE
  8
1
 66
1
  0
VERTEX
  8
1
 10
24.0685792349727
 20
6.5075451870534
  0
VERTEX
  8
1
 10
21.8185792349727
 20
6.5075451870534
  0
VERTEX
  8
1
 10
21.0685792349727
 20
5.20850708137673
  0
VERTEX
  8
1
 10
20.3185792349727
 20
6.5075451870534
  0
VERTEX
  8
1
 10
18.0685792349727
 20
6.5075451870534
  0
SEQEND
  8
1
  0
POLYLINE
  8
1
 66
1
  0
VERTEX
  8
1
 10
-23
 20
6.49245481294661
  0
VERTEX
  8
1
 10
-22.5833333333333
 20
4.49245481294661
  0
VERTEX
  8
1
 10
-21.75
 20
8.49245481294661
  0
VERTEX
  8
1
 10
-20.9166666666667
 20
4.49245481294661
  0
VERTEX
  8
1
 10
-20.0833333333333
 20
8.49245481294661
  0
VERTEX
  8
1
 10
-19.25
 20
4.49245481294661
  0
VERTEX
  8
1
 10
-18.4166666666667
 20
8.49245481294661
  0
VERTEX
  8
1
 10
-18
 20
6.49245481294661
  0
SEQEND
  8
1
  0
LINE
  8
1
 10
0
 20
-3.50754518705339
 11
0
 21
-5.50754518705339
  0
LINE
  8
1
 10
-4
 20
-3.50754518705339
 11
-4
 21
-5.50754518705339
  0
LINE
  8
1
 10
4
 20
-3.50754518705339
 11
4
 21
-5.50754518705339
  0
POLYLINE
  8
1
  6
DOT
 66
1
  0
VERTEX
  8
1
 10
-24
 20
-3.50754518705339
  0
VERTEX
  8
1
 10
-22
 20
-5.50754518705339
  0
VERTEX
  8
1
 10
24
 20
-5.50754518705339
  0
VERTEX
  8
1
 10
24
 20
-3.50754518705339
  0
SEQEND
  8
1
  0
POLYLINE
  8
1
 66
1
  0
VERTEX
  8
1
 10
23.9726938881958
 20
0.491552597584988
  0
VERTEX
  8
1
 10
17.9726938881958
 20
0.491552597584988
  0
VERTEX
  8
1
 10
17.9726938881958
 20
-3.50844740241501
  0
VERTEX
  8
1
 10
23.9726938881958
 20
-3.50844740241501
  0
VERTEX
  8
1
 10
23.9726938881958
 20
0.491552597584988
  0
SEQEND
  8
1
  0
LINE
  8
1
 10
23.9726938881958
 20
0.491552597584988
 11
20.508592273058
 21
-1.50844740241501
  0
LINE
  8
1
 10
23.9726938881958
 20
-3.50844740241501
 11
20.508592273058
 21
-1.50844740241501
  0
POLYLINE
  8
1
 66
1
  0
VERTEX
  8
1
 10
-24
 20
0.492454812946612
  0
VERTEX
  8
1
 10
-18
 20
0.492454812946612
  0
VERTEX
  8
1
 10
-18
 20
-3.50754518705339
  0
VERTEX
  8
1
 10
-24
 20
-3.50754518705339
  0
VERTEX
  8
1
 10
-24
 20
0.492454812946612
  0
SEQEND
  8
1
  0
LINE
  8
1
 10
-24
 20
0.492454812946613
 11
-20.5358983848622
 21
-1.50754518705339
  0
LINE
  8
1
 10
-24
 20
-3.50754518705339
 11
-20.5358983848622
 21
-1.50754518705339
  0
LINE
  8
1
 10
-16
 20
-3.50754518705339
 11
-16
 21
-1.50754518705339
  0
INSERT
  8
1
  2
LCBP1
 10
-16
 20
-1.50754518705339
 50
90
  0
POLYLINE
  8
1
 66
1
  0
VERTEX
  8
1
 10
-18
 20
4.49245481294661
  0
VERTEX
  8
1
 10
-6
 20
4.49245481294661
  0
VERTEX
  8
1
 10
-6
 20
-3.50754518705339
  0
VERTEX
  8
1
 10
-18
 20
-3.50754518705339
  0
VERTEX
  8
1
 10
-18
 20
4.49245481294661
  0
SEQEND
  8
1
  0
LINE
  8
1
 10
-8
 20
4.49245481294661
 11
-8
 21
-3.50754518705339
  0
INSERT
  8
1
  2
LCA1
 10
-8
 20
-3.50754518705339
 50
-90
  0
LINE
  8
1
 10
-12
 20
-3.50754518705339
 11
-16
 21
4.49245481294661
  0
INSERT
  8
1
  2
LCA1
 10
-16
 20
4.49245481294661
 50
116.565051177078
  0
LINE
  8
1
 10
16
 20
-3.50754518705339
 11
16
 21
-1.50754518705339
  0
INSERT
  8
1
  2
LCBP0
 10
16
 20
-1.50754518705339
 50
90
  0
POLYLINE
  8
1
 66
1
  0
VERTEX
  8
1
 10
6
 20
4.49245481294661
  0
VERTEX
  8
1
 10
18
 20
4.49245481294661
  0
VERTEX
  8
1
 10
18
 20
-3.50754518705339
  0
VERTEX
  8
1
 10
6
 20
-3.50754518705339
  0
VERTEX
  8
1
 10
6
 20
4.49245481294661
  0
SEQEND
  8
1
  0
LINE
  8
1
 10
8
 20
4.49245481294661
 11
8
 21
-3.50754518705339
  0
INSERT
  8
1
  2
LCA1
 10
8
 20
-3.50754518705339
 50
-90
  0
LINE
  8
1
 10
12
 20
-3.50754518705339
 11
16
 21
4.49245481294661
  0
INSERT
  8
1
  2
LCA1
 10
16
 20
4.49245481294661
 50
63.434948822922
  0
LINE
  8
1
 10
0
 20
-3.50754518705339
 11
0
 21
-1.50754518705339
  0
INSERT
  8
1
  2
LCBP1
 10
0
 20
-1.50754518705339
 50
90
  0
POLYLINE
  8
1
 66
1
  0
VERTEX
  8
1
 10
-6
 20
4.49245481294661
  0
VERTEX
  8
1
 10
6
 20
4.49245481294661
  0
VERTEX
  8
1
 10
6
 20
-3.50754518705339
  0
VERTEX
  8
1
 10
-6
 20
-3.50754518705339
  0
VERTEX
  8
1
 10
-6
 20
4.49245481294661
  0
SEQEND
  8
1
  0
LINE
  8
1
 10
-4
 20
4.49245481294661
 11
-4
 21
-3.50754518705339
  0
INSERT
  8
1
  2
LCA1
 10
-4
 20
-3.50754518705339
 50
-90
  0
LINE
  8
1
 10
4
 20
4.49245481294661
 11
4
 21
-3.50754518705339
  0
INSERT
  8
1
  2
LCA1
 10
4
 20
-3.50754518705339
 50
-90
  0
CIRCLE
  8
CONNECTIONS
 10
30
 20
-1.50754518705338
 40
0
  0
CIRCLE
  8
CONNECTIONS
 10
-30.0152482350667
 20
-1.50754518705339
 40
0
  0
CIRCLE
  8
CONNECTIONS
 10
-23.9587391535441
 20
-7.46307935911149
 40
0
  0
CIRCLE
  8
CONNECTIONS
 10
3.97952559300866
 20
8.4591007318987
 40
0
  0
CIRCLE
  8
CONNECTIONS
 10
-4.02047440699134
 20
8.4591007318987
 40
0
  0
CIRCLE
  8
CONNECTIONS
 10
-4.03477897644044
 20
-9.50754518705339
 40
0
  0
CIRCLE
  8
CONNECTIONS
 10
-0.0347789764404448
 20
-9.50754518705339
 40
0
  0
CIRCLE
  8
CONNECTIONS
 10
3.96522102355955
 20
-9.50754518705339
 40
0
  0
ENDBLK
  8
0
  0
ENDSEC
  0
SECTION
  2
ENTITIES
  0
INSERT
  8
1
  2
B189347_00995437
 10
30
 20
9.50754518705339
  0
ENDSEC
  0
EOF
