  0
SECTION
  2
HEADER
  9
$LIMMIN
 10
0
 20
0
  9
$LIMMAX
 10
52.5
 20
74.25
  9
$EXTMIN
 10
0
 20
84
  9
$EXTMAX
 10
0
 20
34.3722326755524
  0
ENDSEC
  0
SECTION
  2
TABLES
  0
TABLE
  2
LTYPE
 70
9
  0
LTYPE
  2
CONTINUOUS
 70
64
  3
Solid line
 72
65
 73
0
 40
0
  0
LTYPE
  2
DASHED
 70
64
  3
__ __ __ __ __ __ __ __ __
 72
65
 73
2
 40
0.75
 49
0.5
 49
-0.25
  0
LTYPE
  2
DOT
 70
64
  3
...........................
 72
65
 73
2
 40
0.25
 49
0
 49
-0.25
  0
LTYPE
  2
DASHDOT
 70
64
  3
__ . __ . __ . __ . __ . __ . 
 72
65
 73
4
 40
1
 49
0.5
 49
-0.25
 49
0
 49
-0.25
  0
ENDTAB
  0
TABLE
  2
LAYER
 70
10
  0
LAYER
  2
1
 70
0
 62
7
  6
CONTINUOUS
  0
LAYER
  2
CONNECTIONS
 70
0
 62
-7
  6
CONTINUOUS
  0
ENDTAB
  0
ENDSEC
  0
SECTION
  2
BLOCKS
  0
BLOCK
  8
0
  2
TRICON
 70
0
 10
0
 20
0
  0
POLYLINE
  8
1
 70
1
 66
1
 40
0.5
 41
0.5
  0
VERTEX
  8
1
 10
-0.25
 20
0
 42
1
  0
VERTEX
  8
1
 10
0.25
 20
0
 42
1
  0
SEQEND
  8
1
  0
ENDBLK
  8
0
  0
BLOCK
  8
0
  2
TRICONSMALL
 70
0
 10
0
 20
0
  0
POLYLINE
  8
1
 70
1
 66
1
 40
0.25
 41
0.25
  0
VERTEX
  8
1
 10
-0.125
 20
0
 42
1
  0
VERTEX
  8
1
 10
0.125
 20
0
 42
1
  0
SEQEND
  8
1
  0
ENDBLK
  8
0
  0
BLOCK
  8
0
  2
TRICONCIRCLE
 70
0
 10
0
 20
0
  0
CIRCLE
  8
1
 10
0
 20
0
 40
0.5
  0
ENDBLK
  8
0
  0
BLOCK
  8
0
  2
LCBP0
 70
0
 10
0
 20
0
  0
LINE
  8
1
 10
0
 20
-0.46875
 11
0
 21
0.46875
  0
ENDBLK
  8
0
  0
BLOCK
  8
0
  2
LCBP1
 70
0
 10
0
 20
0
  0
LINE
  8
1
 10
0
 20
-0.625
 11
0
 21
0.625
  0
ENDBLK
  8
0
  0
BLOCK
  8
0
  2
LCBP2
 70
0
 10
0
 20
0
  0
LINE
  8
1
 10
0
 20
-0.9375
 11
0
 21
0.9375
  0
ENDBLK
  8
0
  0
BLOCK
  8
0
  2
LCA1
 70
0
 10
0
 20
0
  0
SOLID
  8
1
 62
7 
 10
0
 20
0
 11
-1.4
 21
-0.275
 12
-1.4
 22
0.275
 13
-1.4
 23
0.275
  0
ENDBLK
  8
0
  0
BLOCK
  8
0
  2
LCA2
 70
0
 10
0
 20
0
  0
SOLID
  8
1
 62
7 
 10
0
 20
0
 11
-1.65
 21
-0.525
 12
-1.65
 22
0.525
 13
-1.65
 23
0.525
  0
ENDBLK
  8
0
  0
BLOCK
  8
0
  2
LCA3
 70
0
 10
0
 20
0
  0
SOLID
  8
1
 62
7 
 10
0
 20
0
 11
-2.15
 21
-1.15
 12
-2.15
 22
1.15
 13
-2.15
 23
1.15
  0
ENDBLK
  8
0
  0
BLOCK
  8
0
  2
LCA1R
 70
0
 10
0
 20
0
  0
SOLID
  8
1
 62
7 
 10
0
 20
0
 11
1.4
 21
-0.275
 12
1.4
 22
0.275
 13
1.4
 23
0.275
  0
ENDBLK
  8
0
  0
BLOCK
  8
0
  2
LCA2R
 70
0
 10
0
 20
0
  0
SOLID
  8
1
 62
7 
 10
0
 20
0
 11
1.65
 21
-0.525
 12
1.65
 22
0.525
 13
1.65
 23
0.525
  0
ENDBLK
  8
0
  0
BLOCK
  8
0
  2
LCA3R
 70
0
 10
0
 20
0
  0
SOLID
  8
1
 62
7 
 10
0
 20
0
 11
2.15
 21
-1.15
 12
2.15
 22
1.15
 13
2.15
 23
1.15
  0
ENDBLK
  8
0
  0
BLOCK
  8
0
  2
B35260_00995431
 70
0
 10
0
 20
0
  0
POLYLINE
  8
1
 66
1
  0
VERTEX
  8
1
 10
-42
 20
13.1861162980397
  0
VERTEX
  8
1
 10
42
 20
13.1861162980397
  0
VERTEX
  8
1
 10
42
 20
-6.81388370196025
  0
VERTEX
  8
1
 10
-42
 20
-6.81388370196025
  0
VERTEX
  8
1
 10
-42
 20
13.1861162980397
  0
SEQEND
  8
1
  0
LINE
  8
1
 10
-13
 20
9.18611629803975
 11
-13
 21
13.1861162980398
  0
LINE
  8
1
 10
27
 20
9.18611629803975
 11
27
 21
13.1861162980398
  0
LINE
  8
1
 10
-13
 20
1.18611629803975
 11
-13
 21
-6.81388370196025
  0
LINE
  8
1
 10
-29
 20
1.18611629803975
 11
-29
 21
-6.81388370196025
  0
LINE
  8
1
  6
DOT
 10
27
 20
1.18611629803975
 11
27
 21
-0.813883701960246
  0
POLYLINE
  8
1
 70
1
 66
1
 40
0.5
 41
0.5
  0
VERTEX
  8
1
 10
26.75
 20
-0.813883701960246
 42
1
  0
VERTEX
  8
1
 10
27.25
 20
-0.813883701960246
 42
1
  0
SEQEND
  8
1
  0
POLYLINE
  8
1
 70
1
 66
1
 40
0.5
 41
0.5
  0
VERTEX
  8
1
 10
-3.25
 20
-0.813883701960246
 42
1
  0
VERTEX
  8
1
 10
-2.75
 20
-0.813883701960246
 42
1
  0
SEQEND
  8
1
  0
POLYLINE
  8
1
  6
DOT
 66
1
  0
VERTEX
  8
1
 10
11
 20
1.18611629803976
  0
VERTEX
  8
1
 10
11
 20
-2.81388370196025
  0
VERTEX
  8
1
 10
-25
 20
-2.81388370196025
  0
VERTEX
  8
1
 10
-29
 20
1.18611629803976
  0
SEQEND
  8
1
  0
POLYLINE
  8
1
  6
DOT
 66
1
  0
VERTEX
  8
1
 10
-3
 20
-0.813883701960243
  0
VERTEX
  8
1
 10
-3
 20
1.18611629803976
  0
SEQEND
  8
1
  0
POLYLINE
  8
1
  6
DOT
 66
1
  0
VERTEX
  8
1
 10
-13
 20
1.18611629803976
  0
VERTEX
  8
1
 10
-11
 20
-0.813883701960243
  0
VERTEX
  8
1
 10
37
 20
-0.813883701960243
  0
VERTEX
  8
1
 10
37
 20
1.18611629803976
  0
SEQEND
  8
1
  0
TEXT
  8
1
 40
2.475
 41
0.75
  1
1
  7
STANDARD
 73
3
 10
-12
 20
-7.7270677725474
 11
-12
 21
-7.7270677725474
  0
TEXT
  8
1
 40
2.475
 41
0.75
  1
12/14
  7
STANDARD
 72
2
 73
3
 10
-29.6347783406575
 20
-7.68816787401835
 11
-29.6347783406575
 21
-7.68816787401835
  0
TEXT
  8
1
 40
2.475
 41
0.75
  1
2
  7
STANDARD
 72
2
 73
2
 10
26.4607493082682
 20
17.1194496313731
 11
26.4607493082682
 21
17.1194496313731
  0
TEXT
  8
1
 40
2.475
 41
0.75
  1
4
  7
STANDARD
 72
2
 73
2
 10
-13.5392506917318
 20
17.1194496313731
 11
-13.5392506917318
 21
17.1194496313731
  0
LINE
  8
1
 10
-13
 20
13.1861162980398
 11
-13
 21
17.1861162980398
  0
LINE
  8
1
 10
27
 20
13.1861162980398
 11
27
 21
17.1861162980398
  0
LINE
  8
1
 10
-13
 20
-6.81388370196025
 11
-13
 21
-10.8138837019602
  0
LINE
  8
1
 10
-29
 20
-6.81388370196025
 11
-29
 21
-10.8138837019602
  0
TEXT
  8
1
 40
2.475
 41
0.75
  1
(14)
  7
STANDARD
 73
2
 10
-38.3323431650797
 20
-14.8138837019602
 11
-38.3323431650797
 21
-14.8138837019602
  0
TEXT
  8
1
 40
2.475
 41
0.75
  1
12
  7
STANDARD
 72
2
 73
2
 10
8.7
 20
8.48611629803976
 11
8.7
 21
8.48611629803976
  0
TEXT
  8
1
 40
2.475
 41
0.75
  1
14
  7
STANDARD
 72
2
 73
2
 10
-31
 20
8.48611629803976
 11
-31
 21
8.48611629803976
  0
LINE
  8
1
 10
7
 20
1.18611629803975
 11
9
 21
5.18611629803975
  0
POLYLINE
  8
1
 66
1
  0
VERTEX
  8
1
 10
5
 20
5.18611629803976
  0
VERTEX
  8
1
 10
11
 20
5.18611629803976
  0
VERTEX
  8
1
 10
11
 20
1.18611629803976
  0
VERTEX
  8
1
 10
5
 20
1.18611629803976
  0
VERTEX
  8
1
 10
5
 20
5.18611629803976
  0
SEQEND
  8
1
  0
LINE
  8
1
 10
-33
 20
1.18611629803976
 11
-31
 21
5.18611629803976
  0
POLYLINE
  8
1
 66
1
  0
VERTEX
  8
1
 10
-35
 20
5.18611629803976
  0
VERTEX
  8
1
 10
-29
 20
5.18611629803976
  0
VERTEX
  8
1
 10
-29
 20
1.18611629803976
  0
VERTEX
  8
1
 10
-35
 20
1.18611629803976
  0
VERTEX
  8
1
 10
-35
 20
5.18611629803976
  0
SEQEND
  8
1
  0
POLYLINE
  8
1
 66
1
  0
VERTEX
  8
1
 10
31
 20
5.18611629803977
  0
VERTEX
  8
1
 10
37
 20
5.18611629803977
  0
VERTEX
  8
1
 10
37
 20
1.18611629803977
  0
VERTEX
  8
1
 10
31
 20
1.18611629803977
  0
VERTEX
  8
1
 10
31
 20
5.18611629803977
  0
SEQEND
  8
1
  0
LINE
  8
1
 10
36.9872069373381
 20
5.15378851685541
 11
33.5692317181956
 21
3.18611629803975
  0
LINE
  8
1
 10
33.5358983848622
 20
3.18611629803975
 11
31
 21
3.18611629803975
  0
LINE
  8
1
 10
37
 20
1.18611629803975
 11
33.5358983848622
 21
3.18611629803975
  0
POLYLINE
  8
1
 66
1
  0
VERTEX
  8
1
 10
-9
 20
5.18729575274299
  0
VERTEX
  8
1
 10
-2.99823081794513
 20
5.18729575274299
  0
VERTEX
  8
1
 10
-2.99823081794513
 20
1.18611629803974
  0
VERTEX
  8
1
 10
-9
 20
1.18611629803974
  0
VERTEX
  8
1
 10
-9
 20
5.18729575274299
  0
SEQEND
  8
1
  0
LINE
  8
1
 10
-3.05393994833184
 20
5.13703489891161
 11
-6.48102913563581
 21
3.18611629803974
  0
LINE
  8
1
 10
-6.46410161513775
 20
3.18611629803975
 11
-9
 21
3.18611629803975
  0
LINE
  8
1
 10
-3
 20
1.18611629803975
 11
-6.46410161513775
 21
3.18611629803975
  0
POLYLINE
  8
1
 66
1
  0
VERTEX
  8
1
 10
11
 20
5.18611629803976
  0
VERTEX
  8
1
 10
15
 20
5.18611629803976
  0
VERTEX
  8
1
 10
15
 20
1.18611629803976
  0
VERTEX
  8
1
 10
11
 20
1.18611629803976
  0
VERTEX
  8
1
 10
11
 20
5.18611629803976
  0
SEQEND
  8
1
  0
LINE
  8
1
 10
11
 20
5.18611629803975
 11
11
 21
1.18611629803975
  0
LINE
  8
1
 10
11
 20
5.18611629803975
 11
14.4641016151378
 21
3.18611629803975
  0
LINE
  8
1
 10
11
 20
1.18611629803975
 11
14.4641016151378
 21
3.18611629803975
  0
POLYLINE
  8
1
 66
1
  0
VERTEX
  8
1
 10
-29
 20
5.18611629803976
  0
VERTEX
  8
1
 10
-25
 20
5.18611629803976
  0
VERTEX
  8
1
 10
-25
 20
1.18611629803976
  0
VERTEX
  8
1
 10
-29
 20
1.18611629803976
  0
VERTEX
  8
1
 10
-29
 20
5.18611629803976
  0
SEQEND
  8
1
  0
LINE
  8
1
 10
-29
 20
5.18611629803975
 11
-29
 21
1.18611629803975
  0
LINE
  8
1
 10
-29
 20
5.18611629803975
 11
-25.5358983848622
 21
3.18611629803975
  0
LINE
  8
1
 10
-29
 20
1.18611629803975
 11
-25.5358983848622
 21
3.18611629803975
  0
LINE
  8
1
 10
27
 20
9.18611629803975
 11
27
 21
7.18611629803975
  0
INSERT
  8
1
  2
LCBP1
 10
27
 20
7.18611629803975
 50
-90
  0
LINE
  8
1
 10
27
 20
1.18611629803975
 11
27
 21
3.18611629803975
  0
INSERT
  8
1
  2
LCBP1
 10
27
 20
3.18611629803975
 50
90
  0
POLYLINE
  8
1
 66
1
  0
VERTEX
  8
1
 10
23
 20
9.18611629803975
  0
VERTEX
  8
1
 10
31
 20
9.18611629803975
  0
VERTEX
  8
1
 10
31
 20
1.18611629803975
  0
VERTEX
  8
1
 10
23
 20
1.18611629803975
  0
VERTEX
  8
1
 10
23
 20
9.18611629803975
  0
SEQEND
  8
1
  0
LINE
  8
1
 10
-13
 20
9.18611629803975
 11
-13
 21
7.18611629803975
  0
INSERT
  8
1
  2
LCBP1
 10
-13
 20
7.18611629803975
 50
-90
  0
LINE
  8
1
 10
-13
 20
1.18611629803975
 11
-13
 21
3.18611629803975
  0
INSERT
  8
1
  2
LCBP1
 10
-13
 20
3.18611629803975
 50
90
  0
POLYLINE
  8
1
 66
1
  0
VERTEX
  8
1
 10
-17
 20
9.18611629803975
  0
VERTEX
  8
1
 10
-9
 20
9.18611629803975
  0
VERTEX
  8
1
 10
-9
 20
1.18611629803975
  0
VERTEX
  8
1
 10
-17
 20
1.18611629803975
  0
VERTEX
  8
1
 10
-17
 20
9.18611629803975
  0
SEQEND
  8
1
  0
LINE
  8
1
 10
19
 20
1.18611629803975
 11
19
 21
9.18611629803975
  0
INSERT
  8
1
  2
LCA1
 10
19
 20
9.18611629803975
 50
90
  0
POLYLINE
  8
1
 66
1
  0
VERTEX
  8
1
 10
15
 20
9.18611629803975
  0
VERTEX
  8
1
 10
23
 20
9.18611629803975
  0
VERTEX
  8
1
 10
23
 20
1.18611629803975
  0
VERTEX
  8
1
 10
15
 20
1.18611629803975
  0
VERTEX
  8
1
 10
15
 20
9.18611629803975
  0
SEQEND
  8
1
  0
LINE
  8
1
 10
-21
 20
1.18611629803975
 11
-21
 21
9.18611629803975
  0
INSERT
  8
1
  2
LCA1
 10
-21
 20
9.18611629803975
 50
90
  0
POLYLINE
  8
1
 66
1
  0
VERTEX
  8
1
 10
-25
 20
9.18611629803975
  0
VERTEX
  8
1
 10
-17
 20
9.18611629803975
  0
VERTEX
  8
1
 10
-17
 20
1.18611629803975
  0
VERTEX
  8
1
 10
-25
 20
1.18611629803975
  0
VERTEX
  8
1
 10
-25
 20
9.18611629803975
  0
SEQEND
  8
1
  0
CIRCLE
  8
CONNECTIONS
 10
-29
 20
-10.8138837019602
 40
0
  0
CIRCLE
  8
CONNECTIONS
 10
-13
 20
-10.8805503686269
 40
0
  0
CIRCLE
  8
CONNECTIONS
 10
-13
 20
17.1194496313731
 40
0
  0
CIRCLE
  8
CONNECTIONS
 10
27
 20
17.1194496313731
 40
0
  0
CIRCLE
  8
CONNECTIONS
 10
5.02712764739991
 20
3.08611629803975
 40
0
  0
CIRCLE
  8
CONNECTIONS
 10
-34.9152482350667
 20
3.18611629803975
 40
0
  0
ENDBLK
  8
0
  0
ENDSEC
  0
SECTION
  2
ENTITIES
  0
INSERT
  8
1
  2
B35260_00995431
 10
42
 20
17.1861163775126
  0
ENDSEC
  0
EOF
