  0
SECTION
  2
HEADER
  9
$LIMMIN
 10
0
 20
0
  9
$LIMMAX
 10
52.5
 20
74.25
  9
$EXTMIN
 10
0
 20
37.7346900304158
  9
$EXTMAX
 10
0
 20
17.7691842714946
  0
ENDSEC
  0
SECTION
  2
TABLES
  0
TABLE
  2
LTYPE
 70
9
  0
LTYPE
  2
CONTINUOUS
 70
64
  3
Solid line
 72
65
 73
0
 40
0
  0
LTYPE
  2
DASHED
 70
64
  3
__ __ __ __ __ __ __ __ __
 72
65
 73
2
 40
0.75
 49
0.5
 49
-0.25
  0
LTYPE
  2
DOT
 70
64
  3
...........................
 72
65
 73
2
 40
0.25
 49
0
 49
-0.25
  0
LTYPE
  2
DASHDOT
 70
64
  3
__ . __ . __ . __ . __ . __ . 
 72
65
 73
4
 40
1
 49
0.5
 49
-0.25
 49
0
 49
-0.25
  0
ENDTAB
  0
TABLE
  2
LAYER
 70
10
  0
LAYER
  2
1
 70
0
 62
7
  6
CONTINUOUS
  0
LAYER
  2
CONNECTIONS
 70
0
 62
-7
  6
CONTINUOUS
  0
ENDTAB
  0
ENDSEC
  0
SECTION
  2
BLOCKS
  0
BLOCK
  8
0
  2
TRICON
 70
0
 10
0
 20
0
  0
POLYLINE
  8
1
 70
1
 66
1
 40
0.5
 41
0.5
  0
VERTEX
  8
1
 10
-0.25
 20
0
 42
1
  0
VERTEX
  8
1
 10
0.25
 20
0
 42
1
  0
SEQEND
  8
1
  0
ENDBLK
  8
0
  0
BLOCK
  8
0
  2
TRICONSMALL
 70
0
 10
0
 20
0
  0
POLYLINE
  8
1
 70
1
 66
1
 40
0.25
 41
0.25
  0
VERTEX
  8
1
 10
-0.125
 20
0
 42
1
  0
VERTEX
  8
1
 10
0.125
 20
0
 42
1
  0
SEQEND
  8
1
  0
ENDBLK
  8
0
  0
BLOCK
  8
0
  2
TRICONCIRCLE
 70
0
 10
0
 20
0
  0
CIRCLE
  8
1
 10
0
 20
0
 40
0.5
  0
ENDBLK
  8
0
  0
BLOCK
  8
0
  2
LCBP0
 70
0
 10
0
 20
0
  0
LINE
  8
1
 10
0
 20
-0.46875
 11
0
 21
0.46875
  0
ENDBLK
  8
0
  0
BLOCK
  8
0
  2
LCBP1
 70
0
 10
0
 20
0
  0
LINE
  8
1
 10
0
 20
-0.625
 11
0
 21
0.625
  0
ENDBLK
  8
0
  0
BLOCK
  8
0
  2
LCBP2
 70
0
 10
0
 20
0
  0
LINE
  8
1
 10
0
 20
-0.9375
 11
0
 21
0.9375
  0
ENDBLK
  8
0
  0
BLOCK
  8
0
  2
LCA1
 70
0
 10
0
 20
0
  0
SOLID
  8
1
 62
7 
 10
0
 20
0
 11
-1.4
 21
-0.275
 12
-1.4
 22
0.275
 13
-1.4
 23
0.275
  0
ENDBLK
  8
0
  0
BLOCK
  8
0
  2
LCA2
 70
0
 10
0
 20
0
  0
SOLID
  8
1
 62
7 
 10
0
 20
0
 11
-1.65
 21
-0.525
 12
-1.65
 22
0.525
 13
-1.65
 23
0.525
  0
ENDBLK
  8
0
  0
BLOCK
  8
0
  2
LCA3
 70
0
 10
0
 20
0
  0
SOLID
  8
1
 62
7 
 10
0
 20
0
 11
-2.15
 21
-1.15
 12
-2.15
 22
1.15
 13
-2.15
 23
1.15
  0
ENDBLK
  8
0
  0
BLOCK
  8
0
  2
LCA1R
 70
0
 10
0
 20
0
  0
SOLID
  8
1
 62
7 
 10
0
 20
0
 11
1.4
 21
-0.275
 12
1.4
 22
0.275
 13
1.4
 23
0.275
  0
ENDBLK
  8
0
  0
BLOCK
  8
0
  2
LCA2R
 70
0
 10
0
 20
0
  0
SOLID
  8
1
 62
7 
 10
0
 20
0
 11
1.65
 21
-0.525
 12
1.65
 22
0.525
 13
1.65
 23
0.525
  0
ENDBLK
  8
0
  0
BLOCK
  8
0
  2
LCA3R
 70
0
 10
0
 20
0
  0
SOLID
  8
1
 62
7 
 10
0
 20
0
 11
2.15
 21
-1.15
 12
2.15
 22
1.15
 13
2.15
 23
1.15
  0
ENDBLK
  8
0
  0
BLOCK
  8
0
  2
B2233_00995430
 70
0
 10
0
 20
0
  0
POLYLINE
  8
1
 66
1
  0
VERTEX
  8
1
 10
-15.3030097484589
 20
7.11540802319844
  0
VERTEX
  8
1
 10
0.696990251541138
 20
7.11540802319844
  0
VERTEX
  8
1
 10
0.696990251541138
 20
-8.88459197680156
  0
VERTEX
  8
1
 10
-15.3030097484589
 20
-8.88459197680156
  0
VERTEX
  8
1
 10
-15.3030097484589
 20
7.11540802319844
  0
SEQEND
  8
1
  0
LINE
  8
1
 10
-10.3030320863361
 20
7.11538568532118
 11
-15.3030097484589
 21
2.1154080231984
  0
POLYLINE
  8
1
 66
1
  0
VERTEX
  8
1
 10
-12.8030097484589
 20
2.61540802319844
  0
VERTEX
  8
1
 10
-1.30300974845886
 20
2.61540802319844
  0
VERTEX
  8
1
 10
-1.30300974845886
 20
-1.88459197680156
  0
VERTEX
  8
1
 10
-12.8030097484589
 20
-1.88459197680156
  0
VERTEX
  8
1
 10
-12.8030097484589
 20
2.61540802319844
  0
SEQEND
  8
1
  0
TEXT
  8
1
 40
1.12499992847443
 41
0.75
  1
NPN
  7
STANDARD
 73
2
 10
-8.68829751014711
 20
-0.962879578272518
 11
-8.68829751014711
 21
-0.962879578272518
  0
TEXT
  8
1
 40
1.12499992847443
 41
0.75
  1
PNP/IO-Link
  7
STANDARD
 73
2
 10
-8.6796169281006
 20
1.03712042172749
 11
-8.6796169281006
 21
1.03712042172749
  0
TEXT
  8
1
 40
1.8
 41
0.75
  1
+24V
  7
STANDARD
 10
11.1800814469655
 20
4.2901477654775
  0
TEXT
  8
1
 40
1.8
 41
0.75
  1
0V
  7
STANDARD
 10
11.1000575224559
 20
-7.98459197680155
  0
TEXT
  8
1
 40
1.8
 41
0.75
  1
BN
  7
STANDARD
 10
4.29699025154114
 20
5.56488750775655
  0
TEXT
  8
1
 40
1.8
 41
0.75
  1
BK
  7
STANDARD
 10
4.29699025154114
 20
1.56488750775655
  0
TEXT
  8
1
 40
1.8
 41
0.75
  1
BU
  7
STANDARD
 10
4.29699025154114
 20
-6.43511249224345
  0
TEXT
  8
1
 40
1.8
 41
0.75
  1
3
  7
STANDARD
 10
0.696990251541138
 20
-6.43511249224345
  0
TEXT
  8
1
 40
1.8
 41
0.75
  1
4
  7
STANDARD
 10
0.696990251541138
 20
1.56488750775655
  0
TEXT
  8
1
 40
1.8
 41
0.75
  1
1
  7
STANDARD
 10
0.696990251541138
 20
5.56488750775655
  0
TEXT
  8
1
 40
1.8
 41
0.75
  1
P
  7
STANDARD
 72
2
 10
-16.3858640193939
 20
6.29014840126038
 11
-16.3858640193939
 21
6.29014840126038
  0
LINE
  8
1
 10
-15.3030097484589
 20
5.61540802319845
 11
-15.3030097484589
 21
4.61540802319845
  0
LINE
  8
1
 10
-15.3030097484589
 20
5.61540802319845
 11
-14.3030097484589
 21
5.11540802319845
  0
LINE
  8
1
 10
-14.3030097484589
 20
5.11540802319845
 11
-15.3030097484589
 21
4.61540802319845
  0
LINE
  8
1
 10
-15.3030097484589
 20
5.61540802319845
 11
-15.3030097484589
 21
4.61540802319845
  0
LINE
  8
1
 10
-18.3030097484589
 20
5.11540802319845
 11
-15.3030097484589
 21
5.11540802319845
  0
LINE
  8
1
 10
4.19699025154113
 20
-6.88459197680155
 11
8.79699025154112
 21
-6.88459197680155
  0
LINE
  8
1
 10
4.19699025154113
 20
5.11540802319845
 11
8.79699025154112
 21
5.11540802319845
  0
LINE
  8
1
 10
4.19699025154113
 20
1.11540802319845
 11
8.79699025154112
 21
1.11540802319845
  0
LINE
  8
1
 10
-1.30300974845886
 20
1.11540802319845
 11
3.29699025154114
 21
1.11540802319845
  0
LINE
  8
1
 10
0.696990251541138
 20
-6.88459197680155
 11
3.29699025154114
 21
-6.88459197680155
  0
LINE
  8
1
 10
0.696990251541138
 20
5.11540802319845
 11
3.29699025154114
 21
5.11540802319845
  0
LINE
  8
1
 10
3.19699025154114
 20
-6.88459197680155
 11
3.29699025154114
 21
-6.88459197680155
  0
CIRCLE
  8
1
 10
3.69699025154114
 20
-6.88459197680155
 40
0.4
  0
CIRCLE
  8
1
 10
3.69699025154114
 20
1.11540802319845
 40
0.4
  0
CIRCLE
  8
1
 10
3.69699025154114
 20
5.11540802319845
 40
0.4
  0
ENDBLK
  8
0
  0
ENDSEC
  0
SECTION
  2
ENTITIES
  0
INSERT
  8
1
  2
B2233_00995430
 10
18.8673449357351
 20
8.88459197680156
  0
ENDSEC
  0
EOF
