  0
SECTION
  2
HEADER
  9
$LIMMIN
 10
0
 20
0
  9
$LIMMAX
 10
52.5
 20
74.25
  9
$EXTMIN
 10
0
 20
61.920591351601
  9
$EXTMAX
 10
0
 20
17.0645760743322
  0
ENDSEC
  0
SECTION
  2
TABLES
  0
TABLE
  2
LTYPE
 70
9
  0
LTYPE
  2
CONTINUOUS
 70
64
  3
Solid line
 72
65
 73
0
 40
0
  0
LTYPE
  2
DASHED
 70
64
  3
__ __ __ __ __ __ __ __ __
 72
65
 73
2
 40
0.75
 49
0.5
 49
-0.25
  0
LTYPE
  2
DOT
 70
64
  3
...........................
 72
65
 73
2
 40
0.25
 49
0
 49
-0.25
  0
LTYPE
  2
DASHDOT
 70
64
  3
__ . __ . __ . __ . __ . __ . 
 72
65
 73
4
 40
1
 49
0.5
 49
-0.25
 49
0
 49
-0.25
  0
ENDTAB
  0
TABLE
  2
LAYER
 70
10
  0
LAYER
  2
1
 70
0
 62
7
  6
CONTINUOUS
  0
LAYER
  2
CONNECTIONS
 70
0
 62
-7
  6
CONTINUOUS
  0
ENDTAB
  0
ENDSEC
  0
SECTION
  2
BLOCKS
  0
BLOCK
  8
0
  2
TRICON
 70
0
 10
0
 20
0
  0
POLYLINE
  8
1
 70
1
 66
1
 40
0.5
 41
0.5
  0
VERTEX
  8
1
 10
-0.25
 20
0
 42
1
  0
VERTEX
  8
1
 10
0.25
 20
0
 42
1
  0
SEQEND
  8
1
  0
ENDBLK
  8
0
  0
BLOCK
  8
0
  2
TRICONSMALL
 70
0
 10
0
 20
0
  0
POLYLINE
  8
1
 70
1
 66
1
 40
0.25
 41
0.25
  0
VERTEX
  8
1
 10
-0.125
 20
0
 42
1
  0
VERTEX
  8
1
 10
0.125
 20
0
 42
1
  0
SEQEND
  8
1
  0
ENDBLK
  8
0
  0
BLOCK
  8
0
  2
TRICONCIRCLE
 70
0
 10
0
 20
0
  0
CIRCLE
  8
1
 10
0
 20
0
 40
0.5
  0
ENDBLK
  8
0
  0
BLOCK
  8
0
  2
LCBP0
 70
0
 10
0
 20
0
  0
LINE
  8
1
 10
0
 20
-0.46875
 11
0
 21
0.46875
  0
ENDBLK
  8
0
  0
BLOCK
  8
0
  2
LCBP1
 70
0
 10
0
 20
0
  0
LINE
  8
1
 10
0
 20
-0.625
 11
0
 21
0.625
  0
ENDBLK
  8
0
  0
BLOCK
  8
0
  2
LCBP2
 70
0
 10
0
 20
0
  0
LINE
  8
1
 10
0
 20
-0.9375
 11
0
 21
0.9375
  0
ENDBLK
  8
0
  0
BLOCK
  8
0
  2
LCA1
 70
0
 10
0
 20
0
  0
SOLID
  8
1
 62
7 
 10
0
 20
0
 11
-1.4
 21
-0.275
 12
-1.4
 22
0.275
 13
-1.4
 23
0.275
  0
ENDBLK
  8
0
  0
BLOCK
  8
0
  2
LCA2
 70
0
 10
0
 20
0
  0
SOLID
  8
1
 62
7 
 10
0
 20
0
 11
-1.65
 21
-0.525
 12
-1.65
 22
0.525
 13
-1.65
 23
0.525
  0
ENDBLK
  8
0
  0
BLOCK
  8
0
  2
LCA3
 70
0
 10
0
 20
0
  0
SOLID
  8
1
 62
7 
 10
0
 20
0
 11
-2.15
 21
-1.15
 12
-2.15
 22
1.15
 13
-2.15
 23
1.15
  0
ENDBLK
  8
0
  0
BLOCK
  8
0
  2
LCA1R
 70
0
 10
0
 20
0
  0
SOLID
  8
1
 62
7 
 10
0
 20
0
 11
1.4
 21
-0.275
 12
1.4
 22
0.275
 13
1.4
 23
0.275
  0
ENDBLK
  8
0
  0
BLOCK
  8
0
  2
LCA2R
 70
0
 10
0
 20
0
  0
SOLID
  8
1
 62
7 
 10
0
 20
0
 11
1.65
 21
-0.525
 12
1.65
 22
0.525
 13
1.65
 23
0.525
  0
ENDBLK
  8
0
  0
BLOCK
  8
0
  2
LCA3R
 70
0
 10
0
 20
0
  0
SOLID
  8
1
 62
7 
 10
0
 20
0
 11
2.15
 21
-1.15
 12
2.15
 22
1.15
 13
2.15
 23
1.15
  0
ENDBLK
  8
0
  0
BLOCK
  8
0
  2
B202043_00995392
 70
0
 10
0
 20
0
  0
TEXT
  8
1
 40
2.4
 41
0.75
  1
12/14
  7
STANDARD
 72
2
 10
-24.2011417216125
 20
-8.58782157344131
 11
-24.2011417216125
 21
-8.58782157344131
  0
LINE
  8
1
 10
-23.8982927149597
 20
-4.48782220922419
 11
-23.8982927149597
 21
-8.48782220922419
  0
TEXT
  8
1
 40
2.4
 41
0.75
  1
12
  7
STANDARD
 73
3
 10
25.6442472920877
 20
7.9
 11
25.6442472920877
 21
7.9
  0
TEXT
  8
1
 40
2.4
 41
0.75
  1
14
  7
STANDARD
 72
2
 73
3
 10
-25.6072103963358
 20
7.93228803716609
 11
-25.6072103963358
 21
7.93228803716609
  0
TEXT
  8
1
 40
2.4
 41
0.75
  1
1
  7
STANDARD
 72
2
 10
0.643056950364223
 20
-8.61915625417553
 11
0.643056950364223
 21
-8.61915625417553
  0
TEXT
  8
1
 40
2.4
 41
0.75
  1
3
  7
STANDARD
 10
4.66044643858444
 20
-8.63228803716608
  0
TEXT
  8
1
 40
2.4
 41
0.75
  1
5
  7
STANDARD
 72
2
 10
-4.17433253785598
 20
-8.53228803716608
 11
-4.17433253785598
 21
-8.53228803716608
  0
TEXT
  8
1
 40
2.4
 41
0.75
  1
2
  7
STANDARD
 72
2
 10
3.9256680979269
 20
4.66771196283392
 11
3.9256680979269
 21
4.66771196283392
  0
TEXT
  8
1
 40
2.4
 41
0.75
  1
4
  7
STANDARD
 72
2
 10
-4.27433190207311
 20
4.66771196283392
 11
-4.27433190207311
 21
4.66771196283392
  0
LINE
  8
1
 10
-3.93955356141556
 20
-4.53228803716608
 11
-3.93955356141556
 21
-8.53228803716608
  0
LINE
  8
1
 10
0.0604464385844447
 20
-4.53228803716608
 11
0.0604464385844447
 21
-8.53228803716608
  0
LINE
  8
1
 10
-3.93955356141556
 20
7.46771196283391
 11
-3.93955356141556
 21
3.46771196283391
  0
LINE
  8
1
 10
4.06044643858444
 20
7.46771196283391
 11
4.06044643858444
 21
3.46771196283391
  0
LINE
  8
1
 10
4.06044643858444
 20
-4.53228803716608
 11
4.06044643858444
 21
-8.53228803716608
  0
LINE
  8
1
 10
18.0604464385844
 20
7.46771196283391
 11
18.0604464385844
 21
3.46771196283391
  0
LINE
  8
1
 10
-17.9395535614156
 20
7.46771196283391
 11
-17.9395535614156
 21
3.46771196283391
  0
LINE
  8
1
 10
28.0604464385844
 20
-4.53228803716608
 11
26.0604464385844
 21
-0.532288037166085
  0
POLYLINE
  8
1
 66
1
  0
VERTEX
  8
1
 10
30.0604464385844
 20
-0.532288037166087
  0
VERTEX
  8
1
 10
24.0604464385844
 20
-0.532288037166087
  0
VERTEX
  8
1
 10
24.0604464385844
 20
-4.53228803716609
  0
VERTEX
  8
1
 10
30.0604464385844
 20
-4.53228803716609
  0
VERTEX
  8
1
 10
30.0604464385844
 20
-0.532288037166087
  0
SEQEND
  8
1
  0
LINE
  8
1
 10
-27.9395535614156
 20
-4.53228803716608
 11
-25.9395535614156
 21
-0.532288037166085
  0
POLYLINE
  8
1
 66
1
  0
VERTEX
  8
1
 10
-29.9395535614156
 20
-0.532288037166087
  0
VERTEX
  8
1
 10
-23.9395535614156
 20
-0.532288037166087
  0
VERTEX
  8
1
 10
-23.9395535614156
 20
-4.53228803716609
  0
VERTEX
  8
1
 10
-29.9395535614156
 20
-4.53228803716609
  0
VERTEX
  8
1
 10
-29.9395535614156
 20
-0.532288037166087
  0
SEQEND
  8
1
  0
LINE
  8
1
 10
-19.8709743264429
 20
8.48280233694069
 11
-19.8709743264429
 21
6.48280233694069
  0
POLYLINE
  8
1
 66
1
  0
VERTEX
  8
1
 10
-17.8709743264429
 20
5.4828023369407
  0
VERTEX
  8
1
 10
-20.1209743264429
 20
5.4828023369407
  0
VERTEX
  8
1
 10
-20.8709743264429
 20
4.18376423126403
  0
VERTEX
  8
1
 10
-21.6209743264429
 20
5.4828023369407
  0
VERTEX
  8
1
 10
-23.8709743264429
 20
5.4828023369407
  0
SEQEND
  8
1
  0
POLYLINE
  8
1
 66
1
  0
VERTEX
  8
1
 10
18.0604464385844
 20
5.46771196283391
  0
VERTEX
  8
1
 10
18.4771131052511
 20
3.46771196283391
  0
VERTEX
  8
1
 10
19.3104464385844
 20
7.46771196283391
  0
VERTEX
  8
1
 10
20.1437797719178
 20
3.46771196283391
  0
VERTEX
  8
1
 10
20.9771131052511
 20
7.46771196283391
  0
VERTEX
  8
1
 10
21.8104464385844
 20
3.46771196283391
  0
VERTEX
  8
1
 10
22.6437797719178
 20
7.46771196283391
  0
VERTEX
  8
1
 10
23.0604464385844
 20
5.46771196283391
  0
SEQEND
  8
1
  0
LINE
  8
1
 10
28.0604464385844
 20
2.96771196283391
 11
24.0604464385844
 21
2.96771196283391
  0
LINE
  8
1
 10
28.0604464385844
 20
3.46771196283391
 11
28.0604464385844
 21
0.467711962833915
  0
LINE
  8
1
 10
28.0604464385844
 20
0.967711962833915
 11
24.0604464385844
 21
0.967711962833915
  0
LINE
  8
1
 10
24.0604464385844
 20
3.46771196283391
 11
24.0604464385844
 21
-0.532288037166085
  0
LINE
  8
1
 10
-27.9395535614156
 20
2.96771196283391
 11
-23.9395535614156
 21
2.96771196283391
  0
LINE
  8
1
 10
-27.9395535614156
 20
3.46771196283391
 11
-27.9395535614156
 21
0.467711962833915
  0
LINE
  8
1
 10
-27.9395535614156
 20
0.967711962833915
 11
-23.9395535614156
 21
0.967711962833915
  0
LINE
  8
1
 10
-23.9395535614156
 20
-0.532288037166085
 11
-23.9395535614156
 21
3.46771196283391
  0
POLYLINE
  8
1
 66
1
  0
VERTEX
  8
1
 10
24.0331403267802
 20
-0.53319025252771
  0
VERTEX
  8
1
 10
18.0331403267802
 20
-0.53319025252771
  0
VERTEX
  8
1
 10
18.0331403267802
 20
-4.53319025252771
  0
VERTEX
  8
1
 10
24.0331403267802
 20
-4.53319025252771
  0
VERTEX
  8
1
 10
24.0331403267802
 20
-0.53319025252771
  0
SEQEND
  8
1
  0
LINE
  8
1
 10
24.0331403267802
 20
-0.53319025252771
 11
20.5690387116425
 21
-2.53319025252771
  0
LINE
  8
1
 10
24.0331403267802
 20
-4.53319025252771
 11
20.5690387116425
 21
-2.53319025252771
  0
POLYLINE
  8
1
 66
1
  0
VERTEX
  8
1
 10
-23.9395535614156
 20
-0.532288037166087
  0
VERTEX
  8
1
 10
-17.9395535614156
 20
-0.532288037166087
  0
VERTEX
  8
1
 10
-17.9395535614156
 20
-4.53228803716609
  0
VERTEX
  8
1
 10
-23.9395535614156
 20
-4.53228803716609
  0
VERTEX
  8
1
 10
-23.9395535614156
 20
-0.532288037166087
  0
SEQEND
  8
1
  0
LINE
  8
1
 10
-23.9395535614156
 20
-0.532288037166085
 11
-20.4754519462778
 21
-2.53228803716609
  0
LINE
  8
1
 10
-23.9395535614156
 20
-4.53228803716608
 11
-20.4754519462778
 21
-2.53228803716609
  0
LINE
  8
1
 10
-15.9395535614156
 20
-4.53228803716608
 11
-15.9395535614156
 21
-2.53228803716609
  0
INSERT
  8
1
  2
LCBP1
 10
-15.9395535614156
 20
-2.53228803716609
 50
90
  0
POLYLINE
  8
1
 66
1
  0
VERTEX
  8
1
 10
-17.9395535614156
 20
3.46771196283391
  0
VERTEX
  8
1
 10
-5.93955356141555
 20
3.46771196283391
  0
VERTEX
  8
1
 10
-5.93955356141555
 20
-4.53228803716609
  0
VERTEX
  8
1
 10
-17.9395535614156
 20
-4.53228803716609
  0
VERTEX
  8
1
 10
-17.9395535614156
 20
3.46771196283391
  0
SEQEND
  8
1
  0
LINE
  8
1
 10
-7.93955356141556
 20
3.46771196283391
 11
-7.93955356141556
 21
-4.53228803716608
  0
INSERT
  8
1
  2
LCA1
 10
-7.93955356141556
 20
-4.53228803716608
 50
-90
  0
LINE
  8
1
 10
-11.9395535614156
 20
-4.53228803716608
 11
-15.9395535614156
 21
3.46771196283391
  0
INSERT
  8
1
  2
LCA1
 10
-15.9395535614156
 20
3.46771196283391
 50
116.565051177078
  0
LINE
  8
1
 10
16.0604464385844
 20
-4.53228803716608
 11
16.0604464385844
 21
-2.53228803716609
  0
INSERT
  8
1
  2
LCBP0
 10
16.0604464385844
 20
-2.53228803716609
 50
90
  0
POLYLINE
  8
1
 66
1
  0
VERTEX
  8
1
 10
6.06044643858444
 20
3.46771196283391
  0
VERTEX
  8
1
 10
18.0604464385844
 20
3.46771196283391
  0
VERTEX
  8
1
 10
18.0604464385844
 20
-4.53228803716609
  0
VERTEX
  8
1
 10
6.06044643858444
 20
-4.53228803716609
  0
VERTEX
  8
1
 10
6.06044643858444
 20
3.46771196283391
  0
SEQEND
  8
1
  0
LINE
  8
1
 10
8.06044643858444
 20
3.46771196283391
 11
8.06044643858444
 21
-4.53228803716608
  0
INSERT
  8
1
  2
LCA1
 10
8.06044643858444
 20
-4.53228803716608
 50
-90
  0
LINE
  8
1
 10
12.0604464385844
 20
-4.53228803716608
 11
16.0604464385844
 21
3.46771196283391
  0
INSERT
  8
1
  2
LCA1
 10
16.0604464385844
 20
3.46771196283391
 50
63.434948822922
  0
LINE
  8
1
 10
0.0604464385844447
 20
-4.53228803716608
 11
0.0604464385844447
 21
-2.53228803716609
  0
INSERT
  8
1
  2
LCBP1
 10
0.0604464385844447
 20
-2.53228803716609
 50
90
  0
POLYLINE
  8
1
 66
1
  0
VERTEX
  8
1
 10
-5.93955356141556
 20
3.46771196283391
  0
VERTEX
  8
1
 10
6.06044643858445
 20
3.46771196283391
  0
VERTEX
  8
1
 10
6.06044643858445
 20
-4.53228803716609
  0
VERTEX
  8
1
 10
-5.93955356141556
 20
-4.53228803716609
  0
VERTEX
  8
1
 10
-5.93955356141556
 20
3.46771196283391
  0
SEQEND
  8
1
  0
LINE
  8
1
 10
-3.93955356141556
 20
3.46771196283391
 11
-3.93955356141556
 21
-4.53228803716608
  0
INSERT
  8
1
  2
LCA1
 10
-3.93955356141556
 20
-4.53228803716608
 50
-90
  0
LINE
  8
1
 10
4.06044643858444
 20
3.46771196283391
 11
4.06044643858444
 21
-4.53228803716608
  0
INSERT
  8
1
  2
LCA1
 10
4.06044643858444
 20
-4.53228803716608
 50
-90
  0
CIRCLE
  8
CONNECTIONS
 10
-23.8982927149597
 20
-8.48782220922419
 40
0
  0
CIRCLE
  8
CONNECTIONS
 10
30.0604464385844
 20
-2.53228803716608
 40
0
  0
CIRCLE
  8
CONNECTIONS
 10
-29.9548017964823
 20
-2.53228803716609
 40
0
  0
CIRCLE
  8
CONNECTIONS
 10
4.06044643858444
 20
7.46771196283391
 40
0
  0
CIRCLE
  8
CONNECTIONS
 10
-3.93955356141556
 20
7.46771196283391
 40
0
  0
CIRCLE
  8
CONNECTIONS
 10
0.0604464385844447
 20
-8.53228803716608
 40
0
  0
CIRCLE
  8
CONNECTIONS
 10
-3.93955356141556
 20
-8.53228803716608
 40
0
  0
CIRCLE
  8
CONNECTIONS
 10
4.06044643858444
 20
-8.53228803716608
 40
0
  0
ENDBLK
  8
0
  0
ENDSEC
  0
SECTION
  2
ENTITIES
  0
INSERT
  8
1
  2
B202043_00995392
 10
30.9602955963277
 20
8.53228803716608
  0
ENDSEC
  0
EOF
