  0
SECTION
  2
HEADER
  9
$LIMMIN
 10
0
 20
0
  9
$LIMMAX
 10
52.5
 20
74.25
  9
$EXTMIN
 10
0
 20
46.3949051570892
  9
$EXTMAX
 10
0
 20
21
  0
ENDSEC
  0
SECTION
  2
TABLES
  0
TABLE
  2
LTYPE
 70
9
  0
LTYPE
  2
CONTINUOUS
 70
64
  3
Solid line
 72
65
 73
0
 40
0
  0
LTYPE
  2
DASHED
 70
64
  3
__ __ __ __ __ __ __ __ __
 72
65
 73
2
 40
0.75
 49
0.5
 49
-0.25
  0
LTYPE
  2
DOT
 70
64
  3
...........................
 72
65
 73
2
 40
0.25
 49
0
 49
-0.25
  0
LTYPE
  2
DASHDOT
 70
64
  3
__ . __ . __ . __ . __ . __ . 
 72
65
 73
4
 40
1
 49
0.5
 49
-0.25
 49
0
 49
-0.25
  0
ENDTAB
  0
TABLE
  2
LAYER
 70
10
  0
LAYER
  2
1
 70
0
 62
7
  6
CONTINUOUS
  0
LAYER
  2
CONNECTIONS
 70
0
 62
-7
  6
CONTINUOUS
  0
ENDTAB
  0
ENDSEC
  0
SECTION
  2
BLOCKS
  0
BLOCK
  8
0
  2
TRICON
 70
0
 10
0
 20
0
  0
POLYLINE
  8
1
 70
1
 66
1
 40
0.5
 41
0.5
  0
VERTEX
  8
1
 10
-0.25
 20
0
 42
1
  0
VERTEX
  8
1
 10
0.25
 20
0
 42
1
  0
SEQEND
  8
1
  0
ENDBLK
  8
0
  0
BLOCK
  8
0
  2
TRICONSMALL
 70
0
 10
0
 20
0
  0
POLYLINE
  8
1
 70
1
 66
1
 40
0.25
 41
0.25
  0
VERTEX
  8
1
 10
-0.125
 20
0
 42
1
  0
VERTEX
  8
1
 10
0.125
 20
0
 42
1
  0
SEQEND
  8
1
  0
ENDBLK
  8
0
  0
BLOCK
  8
0
  2
TRICONCIRCLE
 70
0
 10
0
 20
0
  0
CIRCLE
  8
1
 10
0
 20
0
 40
0.5
  0
ENDBLK
  8
0
  0
BLOCK
  8
0
  2
LCBP0
 70
0
 10
0
 20
0
  0
LINE
  8
1
 10
0
 20
-0.46875
 11
0
 21
0.46875
  0
ENDBLK
  8
0
  0
BLOCK
  8
0
  2
LCBP1
 70
0
 10
0
 20
0
  0
LINE
  8
1
 10
0
 20
-0.625
 11
0
 21
0.625
  0
ENDBLK
  8
0
  0
BLOCK
  8
0
  2
LCBP2
 70
0
 10
0
 20
0
  0
LINE
  8
1
 10
0
 20
-0.9375
 11
0
 21
0.9375
  0
ENDBLK
  8
0
  0
BLOCK
  8
0
  2
LCA1
 70
0
 10
0
 20
0
  0
SOLID
  8
1
 62
7 
 10
0
 20
0
 11
-1.4
 21
-0.275
 12
-1.4
 22
0.275
 13
-1.4
 23
0.275
  0
ENDBLK
  8
0
  0
BLOCK
  8
0
  2
LCA2
 70
0
 10
0
 20
0
  0
SOLID
  8
1
 62
7 
 10
0
 20
0
 11
-1.65
 21
-0.525
 12
-1.65
 22
0.525
 13
-1.65
 23
0.525
  0
ENDBLK
  8
0
  0
BLOCK
  8
0
  2
LCA3
 70
0
 10
0
 20
0
  0
SOLID
  8
1
 62
7 
 10
0
 20
0
 11
-2.15
 21
-1.15
 12
-2.15
 22
1.15
 13
-2.15
 23
1.15
  0
ENDBLK
  8
0
  0
BLOCK
  8
0
  2
LCA1R
 70
0
 10
0
 20
0
  0
SOLID
  8
1
 62
7 
 10
0
 20
0
 11
1.4
 21
-0.275
 12
1.4
 22
0.275
 13
1.4
 23
0.275
  0
ENDBLK
  8
0
  0
BLOCK
  8
0
  2
LCA2R
 70
0
 10
0
 20
0
  0
SOLID
  8
1
 62
7 
 10
0
 20
0
 11
1.65
 21
-0.525
 12
1.65
 22
0.525
 13
1.65
 23
0.525
  0
ENDBLK
  8
0
  0
BLOCK
  8
0
  2
LCA3R
 70
0
 10
0
 20
0
  0
SOLID
  8
1
 62
7 
 10
0
 20
0
 11
2.15
 21
-1.15
 12
2.15
 22
1.15
 13
2.15
 23
1.15
  0
ENDBLK
  8
0
  0
BLOCK
  8
0
  2
B4128_00995389
 70
0
 10
0
 20
0
  0
LINE
  8
1
 10
-6.1974526977539
 20
-0.5
 11
-5.1974526977539
 21
-0.5
  0
POLYLINE
  8
1
 66
1
  0
VERTEX
  8
1
 10
-22.1974526977539
 20
1
  0
VERTEX
  8
1
 10
-6.1974526977539
 20
1
  0
VERTEX
  8
1
 10
-6.1974526977539
 20
-2
  0
VERTEX
  8
1
 10
-22.1974526977539
 20
-2
  0
VERTEX
  8
1
 10
-22.1974526977539
 20
1
  0
SEQEND
  8
1
  0
LINE
  8
1
 10
-17.1974526977539
 20
10.5
 11
-23.1974526977539
 21
4.49999999999996
  0
POLYLINE
  8
1
 66
1
  0
VERTEX
  8
1
 10
-23.1974526977539
 20
10.5
  0
VERTEX
  8
1
 10
-5.1974526977539
 20
10.5
  0
VERTEX
  8
1
 10
-5.1974526977539
 20
-10.5
  0
VERTEX
  8
1
 10
-23.1974526977539
 20
-10.5
  0
VERTEX
  8
1
 10
-23.1974526977539
 20
10.5
  0
SEQEND
  8
1
  0
TEXT
  8
1
 40
1.43954647064209
 41
0.75
  1
T3
  7
STANDARD
 72
1
 73
2
 10
-20.2139745076497
 20
-0.77979204813639
 11
-20.2139745076497
 21
-0.77979204813639
  0
TEXT
  8
1
 40
1.44
 41
0.75
  1
R
  7
STANDARD
 73
2
 10
8.85925694783529
 20
1.1997920481364
 11
8.85925694783529
 21
1.1997920481364
  0
TEXT
  8
1
 40
0.9
 41
0.75
  1
L
  7
STANDARD
 73
2
 10
10.8471984650368
 20
0.820013520936326
 11
10.8471984650368
 21
0.820013520936326
  0
TEXT
  8
1
 40
0.9
 41
0.75
  1
L
  7
STANDARD
 73
2
 10
9.5671984650368
 20
-3.17998647906367
 11
9.5671984650368
 21
-3.17998647906367
  0
TEXT
  8
1
 40
1.44
 41
0.75
  1
R
  7
STANDARD
 73
2
 10
7.57925694783529
 20
-2.80020795186361
 11
7.57925694783529
 21
-2.80020795186361
  0
TEXT
  8
1
 40
1.61999988555908
 41
0.75
  1
G
  7
STANDARD
 10
-22.7399362182617
 20
7.92979199091593
  0
TEXT
  8
1
 40
1.68
 41
0.75
  1
0V
  7
STANDARD
 72
1
 73
2
 10
20.7804955546061
 20
-8.34946746826172
 11
20.7804955546061
 21
-8.34946746826172
  0
TEXT
  8
1
 40
1.44
 41
0.75
  1
+24V
  7
STANDARD
 72
1
 73
2
 10
20.1225473022461
 20
3.4
 11
20.1225473022461
 21
3.4
  0
TEXT
  8
1
 40
1.68
 41
0.75
  1
3
  7
STANDARD
 72
1
 73
2
 10
-2.85737055460612
 20
-6.84946746826172
 11
-2.85737055460612
 21
-6.84946746826172
  0
TEXT
  8
1
 40
1.68
 41
0.75
  1
2
  7
STANDARD
 72
1
 73
2
 10
-2.77737055460612
 20
-2.84946746826172
 11
-2.77737055460612
 21
-2.84946746826172
  0
TEXT
  8
1
 40
1.68
 41
0.75
  1
4
  7
STANDARD
 72
1
 73
2
 10
-2.85737055460612
 20
1.15053253173828
 11
-2.85737055460612
 21
1.15053253173828
  0
TEXT
  8
1
 40
1.44
 41
0.75
  1
1
  7
STANDARD
 10
-4.74354311625162
 20
4.23979204813639
  0
TEXT
  8
1
 40
1.68
 41
0.75
  1
BU
  7
STANDARD
 72
1
 73
2
 10
3.2133446375529
 20
-7.1
 11
3.2133446375529
 21
-7.1
  0
TEXT
  8
1
 40
1.47
 41
0.75
  1
WH
  7
STANDARD
 72
1
 73
2
 10
3.01065236568451
 20
-3.4
 11
3.01065236568451
 21
-3.4
  0
TEXT
  8
1
 40
1.68
 41
0.75
  1
BK
  7
STANDARD
 72
1
 73
2
 10
3.12038166046143
 20
0.900000000000001
 11
3.12038166046143
 21
0.900000000000001
  0
TEXT
  8
1
 40
1.44
 41
0.75
  1
BN
  7
STANDARD
 73
2
 10
1.31420909881592
 20
4.9
 11
1.31420909881592
 21
4.9
  0
LINE
  8
1
 10
1.8025473022461
 20
-8.5
 11
16.8025473022461
 21
-8.5
  0
LINE
  8
1
 10
7.8025473022461
 20
-4.5
 11
1.8025473022461
 21
-4.5
  0
LINE
  8
1
 10
8.8025473022461
 20
-0.5
 11
1.8025473022461
 21
-0.5
  0
LINE
  8
1
 10
1.8025473022461
 20
3.5
 11
16.8025473022461
 21
3.5
  0
POLYLINE
  8
1
 70
1
 66
1
 40
0.5
 41
0.5
  0
VERTEX
  8
1
 10
12.5420519202142
 20
-8.50545759865658
 42
1
  0
VERTEX
  8
1
 10
13.0420519202142
 20
-8.50545759865658
 42
1
  0
SEQEND
  8
1
  0
POLYLINE
  8
1
 70
1
 66
1
 40
0.5
 41
0.5
  0
VERTEX
  8
1
 10
14.5643021301218
 20
-8.50041981528128
 42
1
  0
VERTEX
  8
1
 10
15.0643021301218
 20
-8.50041981528128
 42
1
  0
SEQEND
  8
1
  0
LINE
  8
1
 10
12.8025473022461
 20
-8.40000000000001
 11
12.8025473022461
 21
-4.6
  0
LINE
  8
1
 10
12.8025473022461
 20
-0.5
 11
14.8025473022461
 21
-0.5
  0
LINE
  8
1
 10
14.8025473022461
 20
-8.3
 11
14.8025473022461
 21
-0.5
  0
LINE
  8
1
 10
11.8041067816605
 20
-4.50218556150989
 11
12.8041067816605
 21
-4.50218556150989
  0
LINE
  8
1
 10
-6.1974526977539
 20
-4.5
 11
-5.1974526977539
 21
-4.5
  0
POLYLINE
  8
1
 66
1
  0
VERTEX
  8
1
 10
-8.1974526977539
 20
-3.5
  0
VERTEX
  8
1
 10
-8.1974526977539
 20
-5.5
  0
VERTEX
  8
1
 10
-6.1974526977539
 20
-4.5
  0
VERTEX
  8
1
 10
-8.1974526977539
 20
-3.5
  0
SEQEND
  8
1
  0
LINE
  8
1
 10
-5.1974526977539
 20
3.5
 11
-1.1974526977539
 21
3.5
  0
LINE
  8
1
 10
-5.1974526977539
 20
-8.5
 11
-1.1974526977539
 21
-8.5
  0
LINE
  8
1
 10
-5.1974526977539
 20
-4.5
 11
-1.1974526977539
 21
-4.5
  0
LINE
  8
1
 10
-5.1974526977539
 20
-0.5
 11
-1.1974526977539
 21
-0.5
  0
LINE
  8
1
 10
1.0525473022461
 20
3.5
 11
1.8025473022461
 21
3.5
  0
ARC
  8
1
 10
0.0525473022460972
 20
3.5
 40
1
 50
270
 51
90
  0
SOLID
  8
1
 10
-1.1974526977539
 20
3.75
 11
0.302547302246097
 21
3.75
 12
-1.1974526977539
 22
3.25
 13
0.302547302246097
 23
3.25
  0
SOLID
  8
1
 10
0.302547302246097
 20
3.25
 11
-1.1974526977539
 21
3.25
 12
-1.1974526977539
 22
3.25
 13
-1.1974526977539
 23
3.75
  0
LINE
  8
1
 10
1.0525473022461
 20
-0.5
 11
1.8025473022461
 21
-0.5
  0
ARC
  8
1
 10
0.0525473022460972
 20
-0.5
 40
1
 50
270
 51
90
  0
SOLID
  8
1
 10
-1.1974526977539
 20
-0.25
 11
0.302547302246097
 21
-0.25
 12
-1.1974526977539
 22
-0.75
 13
0.302547302246097
 23
-0.75
  0
SOLID
  8
1
 10
0.302547302246097
 20
-0.75
 11
-1.1974526977539
 21
-0.75
 12
-1.1974526977539
 22
-0.75
 13
-1.1974526977539
 23
-0.25
  0
LINE
  8
1
 10
1.0525473022461
 20
-4.5
 11
1.8025473022461
 21
-4.5
  0
ARC
  8
1
 10
0.0525473022460972
 20
-4.5
 40
1
 50
270
 51
90
  0
SOLID
  8
1
 10
-1.1974526977539
 20
-4.25
 11
0.302547302246097
 21
-4.25
 12
-1.1974526977539
 22
-4.75
 13
0.302547302246097
 23
-4.75
  0
SOLID
  8
1
 10
0.302547302246097
 20
-4.75
 11
-1.1974526977539
 21
-4.75
 12
-1.1974526977539
 22
-4.75
 13
-1.1974526977539
 23
-4.25
  0
LINE
  8
1
 10
1.0525473022461
 20
-8.5
 11
1.8025473022461
 21
-8.5
  0
ARC
  8
1
 10
0.0525473022460972
 20
-8.5
 40
1
 50
270
 51
90
  0
SOLID
  8
1
 10
-1.1974526977539
 20
-8.25
 11
0.302547302246097
 21
-8.25
 12
-1.1974526977539
 22
-8.75
 13
0.302547302246097
 23
-8.75
  0
SOLID
  8
1
 10
0.302547302246097
 20
-8.75
 11
-1.1974526977539
 21
-8.75
 12
-1.1974526977539
 22
-8.75
 13
-1.1974526977539
 23
-8.25
  0
TEXT
  8
1
 40
1.44
 41
0.75
  1
I
  7
STANDARD
 72
2
 73
2
 10
-12.1974526977539
 20
-4.7
 11
-12.1974526977539
 21
-4.7
  0
LINE
  8
1
 10
-9.7974526977539
 20
-3.9
 11
-12.1974526977539
 21
-5.5
  0
LINE
  8
1
 10
-12.1974526977539
 20
-5.5
 11
-9.7974526977539
 21
-5.5
  0
LINE
  8
1
 10
-12.1974526977539
 20
-3.5
 11
-12.1974526977539
 21
-5.5
  0
POLYLINE
  8
1
 66
1
  0
VERTEX
  8
1
 10
7.8025473022461
 20
-4
  0
VERTEX
  8
1
 10
11.8025473022461
 20
-4
  0
VERTEX
  8
1
 10
11.8025473022461
 20
-5
  0
VERTEX
  8
1
 10
7.8025473022461
 20
-5
  0
VERTEX
  8
1
 10
7.8025473022461
 20
-4
  0
SEQEND
  8
1
  0
POLYLINE
  8
1
 66
1
  0
VERTEX
  8
1
 10
8.8025473022461
 20
0
  0
VERTEX
  8
1
 10
12.8025473022461
 20
0
  0
VERTEX
  8
1
 10
12.8025473022461
 20
-1
  0
VERTEX
  8
1
 10
8.8025473022461
 20
-1
  0
VERTEX
  8
1
 10
8.8025473022461
 20
0
  0
SEQEND
  8
1
  0
ENDBLK
  8
0
  0
ENDSEC
  0
SECTION
  2
ENTITIES
  0
INSERT
  8
1
  2
B4128_00995389
 10
23.1974526977539
 20
10.5
  0
ENDSEC
  0
EOF
