  0
SECTION
  2
HEADER
  9
$LIMMIN
 10
0
 20
0
  9
$LIMMAX
 10
52.5
 20
74.25
  9
$EXTMIN
 10
0
 20
108.534690030416
  9
$EXTMAX
 10
0
 20
23.9999997615814
  0
ENDSEC
  0
SECTION
  2
TABLES
  0
TABLE
  2
LTYPE
 70
9
  0
LTYPE
  2
CONTINUOUS
 70
64
  3
Solid line
 72
65
 73
0
 40
0
  0
LTYPE
  2
DASHED
 70
64
  3
__ __ __ __ __ __ __ __ __
 72
65
 73
2
 40
0.75
 49
0.5
 49
-0.25
  0
LTYPE
  2
DOT
 70
64
  3
...........................
 72
65
 73
2
 40
0.25
 49
0
 49
-0.25
  0
LTYPE
  2
DASHDOT
 70
64
  3
__ . __ . __ . __ . __ . __ . 
 72
65
 73
4
 40
1
 49
0.5
 49
-0.25
 49
0
 49
-0.25
  0
ENDTAB
  0
TABLE
  2
LAYER
 70
10
  0
LAYER
  2
1
 70
0
 62
7
  6
CONTINUOUS
  0
LAYER
  2
CONNECTIONS
 70
0
 62
-7
  6
CONTINUOUS
  0
ENDTAB
  0
ENDSEC
  0
SECTION
  2
BLOCKS
  0
BLOCK
  8
0
  2
TRICON
 70
0
 10
0
 20
0
  0
POLYLINE
  8
1
 70
1
 66
1
 40
0.5
 41
0.5
  0
VERTEX
  8
1
 10
-0.25
 20
0
 42
1
  0
VERTEX
  8
1
 10
0.25
 20
0
 42
1
  0
SEQEND
  8
1
  0
ENDBLK
  8
0
  0
BLOCK
  8
0
  2
TRICONSMALL
 70
0
 10
0
 20
0
  0
POLYLINE
  8
1
 70
1
 66
1
 40
0.25
 41
0.25
  0
VERTEX
  8
1
 10
-0.125
 20
0
 42
1
  0
VERTEX
  8
1
 10
0.125
 20
0
 42
1
  0
SEQEND
  8
1
  0
ENDBLK
  8
0
  0
BLOCK
  8
0
  2
TRICONCIRCLE
 70
0
 10
0
 20
0
  0
CIRCLE
  8
1
 10
0
 20
0
 40
0.5
  0
ENDBLK
  8
0
  0
BLOCK
  8
0
  2
LCBP0
 70
0
 10
0
 20
0
  0
LINE
  8
1
 10
0
 20
-0.46875
 11
0
 21
0.46875
  0
ENDBLK
  8
0
  0
BLOCK
  8
0
  2
LCBP1
 70
0
 10
0
 20
0
  0
LINE
  8
1
 10
0
 20
-0.625
 11
0
 21
0.625
  0
ENDBLK
  8
0
  0
BLOCK
  8
0
  2
LCBP2
 70
0
 10
0
 20
0
  0
LINE
  8
1
 10
0
 20
-0.9375
 11
0
 21
0.9375
  0
ENDBLK
  8
0
  0
BLOCK
  8
0
  2
LCA1
 70
0
 10
0
 20
0
  0
SOLID
  8
1
 62
7 
 10
0
 20
0
 11
-1.4
 21
-0.275
 12
-1.4
 22
0.275
 13
-1.4
 23
0.275
  0
ENDBLK
  8
0
  0
BLOCK
  8
0
  2
LCA2
 70
0
 10
0
 20
0
  0
SOLID
  8
1
 62
7 
 10
0
 20
0
 11
-1.65
 21
-0.525
 12
-1.65
 22
0.525
 13
-1.65
 23
0.525
  0
ENDBLK
  8
0
  0
BLOCK
  8
0
  2
LCA3
 70
0
 10
0
 20
0
  0
SOLID
  8
1
 62
7 
 10
0
 20
0
 11
-2.15
 21
-1.15
 12
-2.15
 22
1.15
 13
-2.15
 23
1.15
  0
ENDBLK
  8
0
  0
BLOCK
  8
0
  2
LCA1R
 70
0
 10
0
 20
0
  0
SOLID
  8
1
 62
7 
 10
0
 20
0
 11
1.4
 21
-0.275
 12
1.4
 22
0.275
 13
1.4
 23
0.275
  0
ENDBLK
  8
0
  0
BLOCK
  8
0
  2
LCA2R
 70
0
 10
0
 20
0
  0
SOLID
  8
1
 62
7 
 10
0
 20
0
 11
1.65
 21
-0.525
 12
1.65
 22
0.525
 13
1.65
 23
0.525
  0
ENDBLK
  8
0
  0
BLOCK
  8
0
  2
LCA3R
 70
0
 10
0
 20
0
  0
SOLID
  8
1
 62
7 
 10
0
 20
0
 11
2.15
 21
-1.15
 12
2.15
 22
1.15
 13
2.15
 23
1.15
  0
ENDBLK
  8
0
  0
BLOCK
  8
0
  2
B2121_00995372
 70
0
 10
0
 20
0
  0
POLYLINE
  8
1
 66
1
  0
VERTEX
  8
1
 10
2.29699025154114
 20
11.9999996821086
  0
VERTEX
  8
1
 10
22.2969902515411
 20
11.9999996821086
  0
VERTEX
  8
1
 10
22.2969902515411
 20
-8.00000031789144
  0
VERTEX
  8
1
 10
2.29699025154114
 20
-8.00000031789144
  0
VERTEX
  8
1
 10
2.29699025154114
 20
11.9999996821086
  0
SEQEND
  8
1
  0
LINE
  8
1
 10
-41.7030097484589
 20
9.99999968210856
 11
-50.7030097484589
 21
0.999999682108561
  0
POLYLINE
  8
1
 66
1
  0
VERTEX
  8
1
 10
-50.7030097484589
 20
9.99999968210856
  0
VERTEX
  8
1
 10
-32.7030097484589
 20
9.99999968210856
  0
VERTEX
  8
1
 10
-32.7030097484589
 20
-8.00000031789144
  0
VERTEX
  8
1
 10
-50.7030097484589
 20
-8.00000031789144
  0
VERTEX
  8
1
 10
-50.7030097484589
 20
9.99999968210856
  0
SEQEND
  8
1
  0
TEXT
  8
1
 40
1.8
 41
0.75
  1
PNP
  7
STANDARD
 72
1
 73
3
 10
12.2969902515411
 20
-8.99947980244954
 11
12.2969902515411
 21
-8.99947980244954
  0
TEXT
  8
1
 40
1.8
 41
0.75
  1
PNP
  7
STANDARD
 72
1
 73
3
 10
-41.3030097484589
 20
-8.92473974227904
 11
-41.3030097484589
 21
-8.92473974227904
  0
TEXT
  8
1
 40
1.8
 41
0.75
  1
+24V
  7
STANDARD
 10
46.5800814469655
 20
8.17473942438762
  0
TEXT
  8
1
 40
1.8
 41
0.75
  1
0V
  7
STANDARD
 10
46.5000575224558
 20
-8.10000031789144
  0
TEXT
  8
1
 40
1.8
 41
0.75
  1
5
  7
STANDARD
 10
22.6969902515411
 20
-2.55052083333333
  0
TEXT
  8
1
 40
1.8
 41
0.75
  1
BU
  7
STANDARD
 10
27.6969902515411
 20
-6.55052083333333
  0
TEXT
  8
1
 40
1.8
 41
0.75
  1
3
  7
STANDARD
 10
22.6969902515411
 20
-6.55052083333333
  0
TEXT
  8
1
 40
1.8
 41
0.75
  1
WH
  7
STANDARD
 10
27.6969902515411
 20
1.44947916666667
  0
TEXT
  8
1
 40
1.8
 41
0.75
  1
BK
  7
STANDARD
 10
27.6969902515411
 20
5.44947916666667
  0
TEXT
  8
1
 40
1.8
 41
0.75
  1
BN
  7
STANDARD
 10
27.6969902515411
 20
9.44947916666667
  0
TEXT
  8
1
 40
1.8
 41
0.75
  1
2
  7
STANDARD
 10
22.6969902515411
 20
1.44947916666667
  0
TEXT
  8
1
 40
1.8
 41
0.75
  1
4
  7
STANDARD
 10
22.6969902515411
 20
5.44947916666667
  0
TEXT
  8
1
 40
1.8
 41
0.75
  1
1
  7
STANDARD
 10
22.6969902515411
 20
9.44947916666667
  0
TEXT
  8
1
 40
1.8
 41
0.75
  1
WH
  7
STANDARD
 10
-27.4030097484589
 20
1.44947916666667
  0
TEXT
  8
1
 40
1.8
 41
0.75
  1
0V
  7
STANDARD
 10
-10.7999424775441
 20
-8.10000031789144
  0
TEXT
  8
1
 40
1.8
 41
0.75
  1
+24V
  7
STANDARD
 10
-10.7199185530345
 20
8.17473942438762
  0
TEXT
  8
1
 40
1.8
 41
0.75
  1
5
  7
STANDARD
 10
-32.2030097484589
 20
-2.55052083333333
  0
TEXT
  8
1
 40
1.8
 41
0.75
  1
BU
  7
STANDARD
 10
-27.2030097484589
 20
-6.55052083333333
  0
TEXT
  8
1
 40
1.8
 41
0.75
  1
3
  7
STANDARD
 10
-32.2030097484589
 20
-6.55052083333333
  0
TEXT
  8
1
 40
1.8
 41
0.75
  1
+
  7
STANDARD
 10
-10.7199185530345
 20
8.17473942438762
  0
TEXT
  8
1
 40
1.8
 41
0.75
  1
BK
  7
STANDARD
 10
-27.2030097484589
 20
5.44947916666667
  0
TEXT
  8
1
 40
1.8
 41
0.75
  1
BN
  7
STANDARD
 10
-27.2030097484589
 20
9.44947916666667
  0
TEXT
  8
1
 40
1.8
 41
0.75
  1
2
  7
STANDARD
 10
-32.2030097484589
 20
1.44947916666667
  0
TEXT
  8
1
 40
1.8
 41
0.75
  1
4
  7
STANDARD
 10
-32.2030097484589
 20
5.44947916666667
  0
TEXT
  8
1
 40
1.8
 41
0.75
  1
1
  7
STANDARD
 10
-32.2030097484589
 20
9.44947916666667
  0
TEXT
  8
1
 40
1.8
 41
0.75
  1
P
  7
STANDARD
 72
2
 10
-51.7858640193939
 20
7.17474006017049
 11
-51.7858640193939
 21
7.17474006017049
  0
LINE
  8
1
 10
-50.7030097484589
 20
6.49999968210856
 11
-50.7030097484589
 21
5.49999968210856
  0
LINE
  8
1
 10
-50.7030097484589
 20
6.49999968210856
 11
-49.7030097484589
 21
5.99999968210856
  0
LINE
  8
1
 10
-49.7030097484589
 20
5.99999968210856
 11
-50.7030097484589
 21
5.49999968210856
  0
LINE
  8
1
 10
-50.7030097484589
 20
6.49999968210856
 11
-50.7030097484589
 21
5.49999968210856
  0
LINE
  8
1
 10
-53.7030097484589
 20
5.99999968210856
 11
-50.7030097484589
 21
5.99999968210856
  0
LINE
  8
1
 10
-27.7030097484589
 20
-7.00000031789144
 11
-26.7030097484589
 21
-7.00000031789144
  0
LINE
  8
1
 10
-27.7030097484589
 20
0.999999682108561
 11
-26.7030097484589
 21
0.999999682108561
  0
LINE
  8
1
 10
-27.7030097484589
 20
4.99999968210856
 11
-26.7030097484589
 21
4.99999968210856
  0
LINE
  8
1
 10
-27.7030097484589
 20
8.99999968210856
 11
-26.7030097484589
 21
8.99999968210856
  0
ARC
  8
1
 10
-28.7030039974047
 20
-7.00000031789144
 40
1
 50
270
 51
90
  0
ARC
  8
1
 10
-28.7030039974047
 20
8.99999968210856
 40
1
 50
270
 51
90
  0
ARC
  8
1
 10
-28.7030039974047
 20
0.999999682108561
 40
1
 50
270
 51
90
  0
ARC
  8
1
 10
-28.7030039974047
 20
4.99999968210856
 40
1
 50
270
 51
90
  0
LINE
  8
1
 10
27.2969902515411
 20
-7.00000031789144
 11
28.2969902515411
 21
-7.00000031789144
  0
ARC
  8
1
 10
26.2969902515411
 20
-7.00000031789144
 40
1
 50
270
 51
90
  0
LINE
  8
1
 10
27.2969902515411
 20
8.99999968210856
 11
28.2969902515411
 21
8.99999968210856
  0
ARC
  8
1
 10
26.2969902515411
 20
8.99999968210856
 40
1
 50
270
 51
90
  0
LINE
  8
1
 10
27.2969902515411
 20
0.999999682108561
 11
28.2969902515411
 21
0.999999682108561
  0
ARC
  8
1
 10
26.2969902515411
 20
0.999999682108561
 40
1
 50
270
 51
90
  0
LINE
  8
1
 10
27.2969902515411
 20
4.99999968210856
 11
28.2969902515411
 21
4.99999968210856
  0
ARC
  8
1
 10
26.2969902515411
 20
4.99999968210856
 40
1
 50
270
 51
90
  0
LINE
  8
1
 10
-32.7030097484589
 20
-7.00000031789144
 11
-29.7030097484589
 21
-7.00000031789144
  0
LINE
  8
1
 10
-32.7030097484589
 20
-3.00000031789144
 11
-29.7030097484589
 21
-3.00000031789144
  0
LINE
  8
1
 10
-32.7030097484589
 20
0.999999682108561
 11
-29.7030097484589
 21
0.999999682108561
  0
LINE
  8
1
 10
-32.7030097484589
 20
4.99999968210856
 11
-29.7030097484589
 21
4.99999968210856
  0
LINE
  8
1
 10
-32.7030097484589
 20
8.99999968210856
 11
-29.7030097484589
 21
8.99999968210856
  0
SOLID
  8
1
 10
-29.7030097484589
 20
-6.75000031789144
 11
-28.2030097484589
 21
-6.75000031789144
 12
-29.7030097484589
 22
-7.25000031789144
 13
-28.2030097484589
 23
-7.25000031789144
  0
SOLID
  8
1
 10
-28.2030097484589
 20
-7.25000031789144
 11
-29.7030097484589
 21
-7.25000031789144
 12
-29.7030097484589
 22
-7.25000031789144
 13
-29.7030097484589
 23
-6.75000031789144
  0
SOLID
  8
1
 10
-29.7030097484589
 20
-2.75000031789144
 11
-28.2030097484589
 21
-2.75000031789144
 12
-29.7030097484589
 22
-3.25000031789144
 13
-28.2030097484589
 23
-3.25000031789144
  0
SOLID
  8
1
 10
-28.2030097484589
 20
-3.25000031789144
 11
-29.7030097484589
 21
-3.25000031789144
 12
-29.7030097484589
 22
-3.25000031789144
 13
-29.7030097484589
 23
-2.75000031789144
  0
SOLID
  8
1
 10
-29.7030097484589
 20
1.24999968210856
 11
-28.2030097484589
 21
1.24999968210856
 12
-29.7030097484589
 22
0.749999682108561
 13
-28.2030097484589
 23
0.749999682108561
  0
SOLID
  8
1
 10
-28.2030097484589
 20
0.749999682108561
 11
-29.7030097484589
 21
0.749999682108561
 12
-29.7030097484589
 22
0.749999682108561
 13
-29.7030097484589
 23
1.24999968210856
  0
SOLID
  8
1
 10
-29.7030097484589
 20
5.24999968210856
 11
-28.2030097484589
 21
5.24999968210856
 12
-29.7030097484589
 22
4.74999968210856
 13
-28.2030097484589
 23
4.74999968210856
  0
SOLID
  8
1
 10
-28.2030097484589
 20
4.74999968210856
 11
-29.7030097484589
 21
4.74999968210856
 12
-29.7030097484589
 22
4.74999968210856
 13
-29.7030097484589
 23
5.24999968210856
  0
SOLID
  8
1
 10
-29.7030097484589
 20
9.24999968210856
 11
-28.2030097484589
 21
9.24999968210856
 12
-29.7030097484589
 22
8.74999968210856
 13
-28.2030097484589
 23
8.74999968210856
  0
SOLID
  8
1
 10
-28.2030097484589
 20
8.74999968210856
 11
-29.7030097484589
 21
8.74999968210856
 12
-29.7030097484589
 22
8.74999968210856
 13
-29.7030097484589
 23
9.24999968210856
  0
LINE
  8
1
 10
22.2969902515411
 20
-7.00000031789144
 11
25.2969902515411
 21
-7.00000031789144
  0
LINE
  8
1
 10
22.2969902515411
 20
-3.00000031789144
 11
25.2969902515411
 21
-3.00000031789144
  0
LINE
  8
1
 10
22.2969902515411
 20
0.999999682108561
 11
25.2969902515411
 21
0.999999682108561
  0
LINE
  8
1
 10
22.2969902515411
 20
4.99999968210856
 11
25.2969902515411
 21
4.99999968210856
  0
LINE
  8
1
 10
22.2969902515411
 20
8.99999968210856
 11
25.2969902515411
 21
8.99999968210856
  0
SOLID
  8
1
 10
25.2969902515411
 20
-6.75000031789144
 11
26.7969902515411
 21
-6.75000031789144
 12
25.2969902515411
 22
-7.25000031789144
 13
26.7969902515411
 23
-7.25000031789144
  0
SOLID
  8
1
 10
26.7969902515411
 20
-7.25000031789144
 11
25.2969902515411
 21
-7.25000031789144
 12
25.2969902515411
 22
-7.25000031789144
 13
25.2969902515411
 23
-6.75000031789144
  0
SOLID
  8
1
 10
25.2969902515411
 20
-2.75000031789144
 11
26.7969902515411
 21
-2.75000031789144
 12
25.2969902515411
 22
-3.25000031789144
 13
26.7969902515411
 23
-3.25000031789144
  0
SOLID
  8
1
 10
26.7969902515411
 20
-3.25000031789144
 11
25.2969902515411
 21
-3.25000031789144
 12
25.2969902515411
 22
-3.25000031789144
 13
25.2969902515411
 23
-2.75000031789144
  0
SOLID
  8
1
 10
25.2969902515411
 20
1.24999968210856
 11
26.7969902515411
 21
1.24999968210856
 12
25.2969902515411
 22
0.749999682108561
 13
26.7969902515411
 23
0.749999682108561
  0
SOLID
  8
1
 10
26.7969902515411
 20
0.749999682108561
 11
25.2969902515411
 21
0.749999682108561
 12
25.2969902515411
 22
0.749999682108561
 13
25.2969902515411
 23
1.24999968210856
  0
SOLID
  8
1
 10
25.2969902515411
 20
5.24999968210856
 11
26.7969902515411
 21
5.24999968210856
 12
25.2969902515411
 22
4.74999968210856
 13
26.7969902515411
 23
4.74999968210856
  0
SOLID
  8
1
 10
26.7969902515411
 20
4.74999968210856
 11
25.2969902515411
 21
4.74999968210856
 12
25.2969902515411
 22
4.74999968210856
 13
25.2969902515411
 23
5.24999968210856
  0
SOLID
  8
1
 10
25.2969902515411
 20
9.24999968210856
 11
26.7969902515411
 21
9.24999968210856
 12
25.2969902515411
 22
8.74999968210856
 13
26.7969902515411
 23
8.74999968210856
  0
SOLID
  8
1
 10
26.7969902515411
 20
8.74999968210856
 11
25.2969902515411
 21
8.74999968210856
 12
25.2969902515411
 22
8.74999968210856
 13
25.2969902515411
 23
9.24999968210856
  0
LINE
  8
1
 10
27.2969960025953
 20
-7.00000031789144
 11
45.7969960025953
 21
-7.00000031789144
  0
LINE
  8
1
 10
42.0469960025953
 20
8.99999968210856
 11
45.7969960025953
 21
8.99999968210856
  0
LINE
  8
1
 10
37.9969902515411
 20
0.999999682108561
 11
41.6969902515411
 21
0.999999682108561
  0
LINE
  8
1
 10
27.2969960025953
 20
0.999999682108561
 11
34.2969960025953
 21
0.999999682108561
  0
LINE
  8
1
 10
36.9969960025953
 20
0.999999682108561
 11
37.9969960025953
 21
0.999999682108561
  0
POLYLINE
  8
1
 66
1
  0
VERTEX
  8
1
 10
34.2969960025953
 20
0.999999682108562
  0
VERTEX
  8
1
 10
35.2969960025953
 20
0.999999682108562
  0
VERTEX
  8
1
 10
37.7969960025953
 20
1.99999968210856
  0
SEQEND
  8
1
  0
LINE
  8
1
 10
37.9969902515411
 20
8.99999968210856
 11
39.5469902515411
 21
8.99999968210856
  0
LINE
  8
1
 10
36.9969902515411
 20
4.99999968210856
 11
37.9969902515411
 21
4.99999968210856
  0
LINE
  8
1
 10
36.9969902515411
 20
8.99999968210856
 11
37.9969902515411
 21
8.99999968210856
  0
LINE
  8
1
 10
27.2969960025953
 20
4.99999968210856
 11
34.2969960025953
 21
4.99999968210856
  0
POLYLINE
  8
1
 66
1
  0
VERTEX
  8
1
 10
34.2969960025953
 20
4.99999968210856
  0
VERTEX
  8
1
 10
35.2969960025953
 20
4.99999968210856
  0
VERTEX
  8
1
 10
37.7969960025953
 20
5.99999968210856
  0
SEQEND
  8
1
  0
CIRCLE
  8
1
 10
41.7969960025953
 20
8.99999968210856
 40
0.25
  0
CIRCLE
  8
1
 10
39.7969960025953
 20
8.99999968210856
 40
0.25
  0
LINE
  8
1
 10
41.7969960025953
 20
0.999999682108561
 11
41.7969960025953
 21
8.74999968210856
  0
LINE
  8
1
 10
39.7969960025953
 20
4.99999968210856
 11
39.7969960025953
 21
8.74999968210856
  0
LINE
  8
1
 10
40.0469960025953
 20
8.99999968210856
 11
41.5469960025953
 21
8.99999968210856
  0
LINE
  8
1
 10
37.7969960025953
 20
4.99999968210856
 11
39.7969960025953
 21
4.99999968210856
  0
LINE
  8
1
 10
27.2969960025953
 20
8.99999968210856
 11
34.2969960025953
 21
8.99999968210856
  0
POLYLINE
  8
1
 66
1
  0
VERTEX
  8
1
 10
34.2969960025953
 20
8.99999968210856
  0
VERTEX
  8
1
 10
35.2969960025953
 20
8.99999968210856
  0
VERTEX
  8
1
 10
37.7969960025953
 20
9.99999968210856
  0
SEQEND
  8
1
  0
TEXT
  8
1
 40
1.125
 41
0.75
  1
L
  7
STANDARD
 72
1
 73
3
 10
-18.8895437399546
 20
3.21874952316284
 11
-18.8895437399546
 21
3.21874952316284
  0
TEXT
  8
1
 40
1.8
 41
0.75
  1
R
  7
STANDARD
 72
1
 73
3
 10
-20.6030097484589
 20
4.00051956176758
 11
-20.6030097484589
 21
4.00051956176758
  0
TEXT
  8
1
 40
1.125
 41
0.75
  1
L
  7
STANDARD
 72
1
 73
3
 10
-16.8895437399546
 20
7.21874952316284
 11
-16.8895437399546
 21
7.21874952316284
  0
TEXT
  8
1
 40
1.8
 41
0.75
  1
R
  7
STANDARD
 72
1
 73
3
 10
-18.6030097484589
 20
8.00051956176758
 11
-18.6030097484589
 21
8.00051956176758
  0
LINE
  8
1
 10
-26.7030097484589
 20
4.99999968210856
 11
-20.1030097484589
 21
4.99999968210856
  0
LINE
  8
1
 10
-26.7030097484589
 20
8.99999968210856
 11
-11.7030097484589
 21
8.99999968210856
  0
LINE
  8
1
 10
-26.7030097484589
 20
0.999999682108561
 11
-22.1030097484589
 21
0.999999682108561
  0
LINE
  8
1
 10
-26.7030097484589
 20
-7.00000031789144
 11
-17.3030097484589
 21
-7.00000031789144
  0
LINE
  8
1
 10
-16.9029783087956
 20
-7.00000031789144
 11
-15.3030097484589
 21
-7.00000031789144
  0
LINE
  8
1
 10
-14.9030097484589
 20
-7.00000031789144
 11
-11.1030097484589
 21
-7.00000031789144
  0
LINE
  8
1
 10
-15.1030097484589
 20
4.99999968210856
 11
-15.1030097484589
 21
-6.80000031789144
  0
LINE
  8
1
 10
-18.1030097484589
 20
0.999999682108561
 11
-17.1030097484589
 21
0.999999682108561
  0
POLYLINE
  8
1
 66
1
  0
VERTEX
  8
1
 10
-22.1030097484589
 20
1.49999968210856
  0
VERTEX
  8
1
 10
-18.1030097484589
 20
1.49999968210856
  0
VERTEX
  8
1
 10
-18.1030097484589
 20
0.499999682108562
  0
VERTEX
  8
1
 10
-22.1030097484589
 20
0.499999682108562
  0
VERTEX
  8
1
 10
-22.1030097484589
 20
1.49999968210856
  0
SEQEND
  8
1
  0
POLYLINE
  8
1
 66
1
  0
VERTEX
  8
1
 10
-20.1030097484589
 20
5.49999968210856
  0
VERTEX
  8
1
 10
-16.1030097484589
 20
5.49999968210856
  0
VERTEX
  8
1
 10
-16.1030097484589
 20
4.49999968210856
  0
VERTEX
  8
1
 10
-20.1030097484589
 20
4.49999968210856
  0
VERTEX
  8
1
 10
-20.1030097484589
 20
5.49999968210856
  0
SEQEND
  8
1
  0
LINE
  8
1
 10
-16.1030097484589
 20
4.99999968210856
 11
-15.1030097484589
 21
4.99999968210856
  0
CIRCLE
  8
1
 10
-15.1030097484589
 20
-7.00000031789144
 40
0.2
  0
CIRCLE
  8
1
 10
-17.1030097484589
 20
-7.00000031789144
 40
0.2
  0
LINE
  8
1
 10
-17.1030097484589
 20
0.999999682108561
 11
-17.1030097484589
 21
-6.80000031789144
  0
LINE
  8
1
 10
8.29699025154114
 20
-4.00000031789144
 11
8.29699025154114
 21
-7.00000031789144
  0
LINE
  8
1
 10
8.29699025154114
 20
-2.00000031789144
 11
8.29699025154114
 21
0.999999682108561
  0
LINE
  8
1
 10
15.2969902515411
 20
-7.00000031789144
 11
15.2969902515411
 21
-4.00000031789144
  0
LINE
  8
1
 10
15.2969902515411
 20
4.99999968210856
 11
15.2969902515411
 21
-2.00000031789144
  0
LINE
  8
1
 10
22.2969902515411
 20
-7.00000031789144
 11
8.29699025154114
 21
-7.00000031789144
  0
LINE
  8
1
 10
22.2969902515411
 20
0.999999682108561
 11
8.29699025154114
 21
0.999999682108561
  0
LINE
  8
1
 10
22.2969902515411
 20
4.99999968210856
 11
15.2969902515411
 21
4.99999968210856
  0
LINE
  8
1
  6
DOT
 10
-42.7030097484589
 20
2.99999968210856
 11
-37.1029982463505
 21
2.99999968210856
  0
LINE
  8
1
 10
-44.2030097484589
 20
2.89999968210856
 11
-43.7030097484589
 21
2.49999968210856
  0
LINE
  8
1
 10
-44.2030097484589
 20
3.09999968210856
 11
-43.7030097484589
 21
3.49999968210856
  0
SOLID
  8
1
 10
-42.2030097484589
 20
4.99999968210856
 11
-42.8124612206729
 21
4.49644342604954
 12
-42.2030097484589
 22
4.99999968210856
 13
-42.3884371725947
 23
4.23148379393294
  0
LINE
  8
1
 10
-44.7030097484589
 20
0.999999682108561
 11
-42.2030097484589
 21
4.99999968210856
  0
LINE
  8
1
 10
-44.2030097484589
 20
1.99999968210856
 11
-44.2030097484589
 21
0.999999682108561
  0
LINE
  8
1
 10
-44.2030097484589
 20
3.99999968210856
 11
-44.2030097484589
 21
4.99999968210856
  0
POLYLINE
  8
1
 66
1
  0
VERTEX
  8
1
 10
-45.7030097484589
 20
3.99999968210856
  0
VERTEX
  8
1
 10
-42.7030097484589
 20
3.99999968210856
  0
VERTEX
  8
1
 10
-42.7030097484589
 20
1.99999968210856
  0
VERTEX
  8
1
 10
-45.7030097484589
 20
1.99999968210856
  0
VERTEX
  8
1
 10
-45.7030097484589
 20
3.99999968210856
  0
SEQEND
  8
1
  0
LINE
  8
1
 10
-44.2030097484589
 20
3.39999968210856
 11
-44.2030097484589
 21
2.59999968210856
  0
LINE
  8
1
 10
-45.2030097484589
 20
2.99999968210856
 11
-44.2030097484589
 21
2.99999968210856
  0
LINE
  8
1
  6
DOT
 10
-38.7030097484589
 20
6.99999968210856
 11
-35.102997129641
 21
6.99999968210856
  0
LINE
  8
1
 10
-40.2030097484589
 20
6.89999968210856
 11
-39.7030097484589
 21
6.49999968210856
  0
LINE
  8
1
 10
-40.2030097484589
 20
7.09999968210856
 11
-39.7030097484589
 21
7.49999968210856
  0
SOLID
  8
1
 10
-38.2030097484589
 20
8.99999968210856
 11
-38.8124612206729
 21
8.49644342604953
 12
-38.2030097484589
 22
8.99999968210856
 13
-38.3884371725947
 23
8.23148379393293
  0
LINE
  8
1
 10
-40.7030097484589
 20
4.99999968210856
 11
-38.2030097484589
 21
8.99999968210856
  0
LINE
  8
1
 10
-40.2030097484589
 20
5.99999968210856
 11
-40.2030097484589
 21
4.99999968210856
  0
LINE
  8
1
 10
-40.2030097484589
 20
7.99999968210856
 11
-40.2030097484589
 21
8.99999968210856
  0
POLYLINE
  8
1
 66
1
  0
VERTEX
  8
1
 10
-41.7030097484589
 20
7.99999968210856
  0
VERTEX
  8
1
 10
-38.7030097484589
 20
7.99999968210856
  0
VERTEX
  8
1
 10
-38.7030097484589
 20
5.99999968210856
  0
VERTEX
  8
1
 10
-41.7030097484589
 20
5.99999968210856
  0
VERTEX
  8
1
 10
-41.7030097484589
 20
7.99999968210856
  0
SEQEND
  8
1
  0
LINE
  8
1
 10
-40.2030097484589
 20
7.39999968210856
 11
-40.2030097484589
 21
6.59999968210856
  0
LINE
  8
1
 10
-41.2030097484589
 20
6.99999968210856
 11
-40.2030097484589
 21
6.99999968210856
  0
LINE
  8
1
 10
19.2969902515411
 20
8.99999968210856
 11
24.2969902515411
 21
8.99999968210856
  0
LINE
  8
1
 10
4.89699025154115
 20
4.3333330154419
 11
5.29699025154114
 21
4.3333330154419
  0
TEXT
  8
1
 40
1.125
 41
0.75
  1
Clean
  7
STANDARD
 73
3
 10
2.94699025154114
 20
2.40865821838379
 11
2.94699025154114
 21
2.40865821838379
  0
TEXT
  8
1
 40
1.8
 41
0.75
  1
E
  7
STANDARD
 10
2.69699025154114
 20
2.93333301544189
  0
LINE
  8
1
 10
11.8266919376631
 20
7.33333301544189
 11
12.3266919376631
 21
7.33333301544189
  0
TEXT
  8
1
 40
1.8
 41
0.75
  1
E
  7
STANDARD
 10
9.29699025154114
 20
5.8333330154419
  0
TEXT
  8
1
 40
1.125
 41
0.75
  1
Sense
  7
STANDARD
 73
3
 10
9.36806345694267
 20
5.26127608144942
 11
9.36806345694267
 21
5.26127608144942
  0
LINE
  8
1
 10
15.2969902515411
 20
8.99999968210856
 11
18.2969902515411
 21
8.99999968210856
  0
POLYLINE
  8
1
 66
1
  0
VERTEX
  8
1
 10
13.9636529862518
 20
-2.00000818180348
  0
VERTEX
  8
1
 10
16.9636529862518
 20
-2.00000818180348
  0
VERTEX
  8
1
 10
16.9636529862518
 20
-4.00000818180348
  0
VERTEX
  8
1
 10
13.9636529862518
 20
-4.00000818180348
  0
VERTEX
  8
1
 10
13.9636529862518
 20
-2.00000818180348
  0
SEQEND
  8
1
  0
LINE
  8
1
 10
14.9636529862518
 20
-4.00000818180348
 11
15.9636529862518
 21
-2.00000818180348
  0
POLYLINE
  8
1
 66
1
  0
VERTEX
  8
1
 10
6.96365298625178
 20
-2.00000818180348
  0
VERTEX
  8
1
 10
9.96365298625178
 20
-2.00000818180348
  0
VERTEX
  8
1
 10
9.96365298625178
 20
-4.00000818180348
  0
VERTEX
  8
1
 10
6.96365298625178
 20
-4.00000818180348
  0
VERTEX
  8
1
 10
6.96365298625178
 20
-2.00000818180348
  0
SEQEND
  8
1
  0
LINE
  8
1
 10
7.96365298625178
 20
-4.00000818180348
 11
8.96365298625178
 21
-2.00000818180348
  0
LINE
  8
1
 10
5.79699025154114
 20
3.33333301544189
 11
5.29699025154114
 21
4.33333301544189
  0
LINE
  8
1
 10
6.29699025154114
 20
4.33333301544189
 11
5.79699025154114
 21
3.33333301544189
  0
LINE
  8
1
 10
6.79699025154114
 20
4.33333301544189
 11
6.29699025154114
 21
4.33333301544189
  0
LINE
  8
1
 10
7.79699025154114
 20
4.33333301544189
 11
7.29699025154114
 21
4.33333301544189
  0
LINE
  8
1
 10
12.2969902515411
 20
7.33333301544189
 11
12.7969902515411
 21
6.33333301544189
  0
LINE
  8
1
 10
13.2969902515411
 20
7.33333301544189
 11
12.7969902515411
 21
6.33333301544189
  0
LINE
  8
1
 10
13.7969902515411
 20
7.33333301544189
 11
13.2969902515411
 21
7.33333301544189
  0
LINE
  8
1
 10
14.7969902515411
 20
7.33333301544189
 11
14.2969902515411
 21
7.33333301544189
  0
LINE
  8
1
 10
8.29699025154114
 20
8.99999968210856
 11
15.2969902515411
 21
8.99999968210856
  0
LINE
  8
1
 10
8.29699025154114
 20
5.99999968210856
 11
8.29699025154114
 21
8.99999968210856
  0
LINE
  8
1
 10
8.29699025154114
 20
1.99999968210856
 11
8.29699025154114
 21
0.999999682108561
  0
LINE
  8
1
 10
7.29699025154114
 20
5.49999968210856
 11
8.29699025154114
 21
2.99999968210856
  0
LINE
  8
1
 10
7.29699025154114
 20
2.99999968210856
 11
9.29699025154114
 21
2.99999968210856
  0
LINE
  8
1
 10
8.29699025154114
 20
2.99999968210856
 11
8.29699025154114
 21
1.99999968210856
  0
LINE
  8
1
 10
8.29699025154114
 20
4.99999968210856
 11
8.29699025154114
 21
5.99999968210856
  0
LINE
  8
1
 10
14.2969902515411
 20
8.49999968210856
 11
15.2969902515411
 21
5.99999968210856
  0
LINE
  8
1
 10
14.2969902515411
 20
5.99999968210856
 11
16.2969902515411
 21
5.99999968210856
  0
LINE
  8
1
 10
15.2969902515411
 20
5.99999968210856
 11
15.2969902515411
 21
4.99999968210856
  0
LINE
  8
1
 10
15.2969902515411
 20
7.99999968210856
 11
15.2969902515411
 21
8.99999968210856
  0
POLYLINE
  8
1
 66
1
  0
VERTEX
  8
1
 10
19.2969902515411
 20
8.99999968210856
  0
VERTEX
  8
1
 10
20.9969902515411
 20
9.99999968210856
  0
VERTEX
  8
1
 10
20.9969902515411
 20
7.99999968210856
  0
VERTEX
  8
1
 10
19.2969902515411
 20
8.99999968210856
  0
SEQEND
  8
1
  0
LINE
  8
1
 10
19.2969902515411
 20
9.99999968210856
 11
19.2969902515411
 21
7.99999968210856
  0
LINE
  8
1
 10
19.2969902515411
 20
8.99999968210856
 11
18.2969902515411
 21
8.99999968210856
  0
LINE
  8
1
 10
-34.7030097484589
 20
4.99999968210856
 11
-32.7030097484589
 21
4.99999968210856
  0
LINE
  8
1
 10
-34.7030097484589
 20
8.99999968210856
 11
-32.7030097484589
 21
8.99999968210856
  0
LINE
  8
1
 10
-35.7030097484589
 20
8.49999968210856
 11
-34.7030097484589
 21
5.99999968210856
  0
LINE
  8
1
 10
-35.7030097484589
 20
5.99999968210856
 11
-33.7030097484589
 21
5.99999968210856
  0
LINE
  8
1
 10
-34.7030097484589
 20
5.99999968210856
 11
-34.7030097484589
 21
4.99999968210856
  0
LINE
  8
1
 10
-34.7030097484589
 20
7.99999968210856
 11
-34.7030097484589
 21
8.99999968210856
  0
LINE
  8
1
 10
21.0148003360459
 20
0.999999682108561
 11
22.2969902515411
 21
0.999999682108561
  0
POLYLINE
  8
1
 66
1
  0
VERTEX
  8
1
 10
19.2969902515411
 20
0.999999682108562
  0
VERTEX
  8
1
 10
20.9969902515411
 20
1.99999968210856
  0
VERTEX
  8
1
 10
20.9969902515411
 20
-3.17891437617845E-07
  0
VERTEX
  8
1
 10
19.2969902515411
 20
0.999999682108562
  0
SEQEND
  8
1
  0
LINE
  8
1
 10
19.2969902515411
 20
1.99999968210856
 11
19.2969902515411
 21
-3.17891438802083E-07
  0
LINE
  8
1
 10
19.2969902515411
 20
0.999999682108561
 11
18.2969902515411
 21
0.999999682108561
  0
LINE
  8
1
 10
21.0148003360459
 20
4.99999968210856
 11
22.2969902515411
 21
4.99999968210856
  0
POLYLINE
  8
1
 66
1
  0
VERTEX
  8
1
 10
19.2969902515411
 20
4.99999968210856
  0
VERTEX
  8
1
 10
20.9969902515411
 20
5.99999968210856
  0
VERTEX
  8
1
 10
20.9969902515411
 20
3.99999968210856
  0
VERTEX
  8
1
 10
19.2969902515411
 20
4.99999968210856
  0
SEQEND
  8
1
  0
LINE
  8
1
 10
19.2969902515411
 20
5.99999968210856
 11
19.2969902515411
 21
3.99999968210856
  0
LINE
  8
1
 10
19.2969902515411
 20
4.99999968210856
 11
18.2969902515411
 21
4.99999968210856
  0
POLYLINE
  8
1
 66
1
  0
VERTEX
  8
1
 10
-36.7030097484589
 20
4.99999968210856
  0
VERTEX
  8
1
 10
-36.7030097484589
 20
8.99999968210856
  0
VERTEX
  8
1
 10
-32.7030097484589
 20
8.99999968210856
  0
SEQEND
  8
1
  0
LINE
  8
1
 10
-37.7030097484589
 20
4.49999968210856
 11
-36.7030097484589
 21
1.99999968210856
  0
LINE
  8
1
 10
-37.7030097484589
 20
1.99999968210856
 11
-35.7030097484589
 21
1.99999968210856
  0
LINE
  8
1
 10
-36.7030097484589
 20
1.99999968210856
 11
-36.7030097484589
 21
0.999999682108561
  0
LINE
  8
1
 10
-36.7030097484589
 20
3.99999968210856
 11
-36.7030097484589
 21
4.99999968210856
  0
LINE
  8
1
 10
-36.7030097484589
 20
0.999999682108561
 11
-32.7030097484589
 21
0.999999682108561
  0
ENDBLK
  8
0
  0
ENDSEC
  0
SECTION
  2
ENTITIES
  0
INSERT
  8
1
  2
B2121_00995372
 10
54.2673449357351
 20
12.0000000794729
  0
ENDSEC
  0
EOF
