  0
SECTION
  2
HEADER
  9
$LIMMIN
 10
0
 20
0
  9
$LIMMAX
 10
52.5
 20
74.25
  9
$EXTMIN
 10
0
 20
80
  9
$EXTMAX
 10
0
 20
46
  0
ENDSEC
  0
SECTION
  2
TABLES
  0
TABLE
  2
LTYPE
 70
9
  0
LTYPE
  2
CONTINUOUS
 70
64
  3
Solid line
 72
65
 73
0
 40
0
  0
LTYPE
  2
DASHED
 70
64
  3
__ __ __ __ __ __ __ __ __
 72
65
 73
2
 40
0.75
 49
0.5
 49
-0.25
  0
LTYPE
  2
DOT
 70
64
  3
...........................
 72
65
 73
2
 40
0.25
 49
0
 49
-0.25
  0
LTYPE
  2
DASHDOT
 70
64
  3
__ . __ . __ . __ . __ . __ . 
 72
65
 73
4
 40
1
 49
0.5
 49
-0.25
 49
0
 49
-0.25
  0
ENDTAB
  0
TABLE
  2
LAYER
 70
10
  0
LAYER
  2
1
 70
0
 62
7
  6
CONTINUOUS
  0
LAYER
  2
CONNECTIONS
 70
0
 62
-7
  6
CONTINUOUS
  0
ENDTAB
  0
ENDSEC
  0
SECTION
  2
BLOCKS
  0
BLOCK
  8
0
  2
TRICON
 70
0
 10
0
 20
0
  0
POLYLINE
  8
1
 70
1
 66
1
 40
0.5
 41
0.5
  0
VERTEX
  8
1
 10
-0.25
 20
0
 42
1
  0
VERTEX
  8
1
 10
0.25
 20
0
 42
1
  0
SEQEND
  8
1
  0
ENDBLK
  8
0
  0
BLOCK
  8
0
  2
TRICONSMALL
 70
0
 10
0
 20
0
  0
POLYLINE
  8
1
 70
1
 66
1
 40
0.25
 41
0.25
  0
VERTEX
  8
1
 10
-0.125
 20
0
 42
1
  0
VERTEX
  8
1
 10
0.125
 20
0
 42
1
  0
SEQEND
  8
1
  0
ENDBLK
  8
0
  0
BLOCK
  8
0
  2
TRICONCIRCLE
 70
0
 10
0
 20
0
  0
CIRCLE
  8
1
 10
0
 20
0
 40
0.5
  0
ENDBLK
  8
0
  0
BLOCK
  8
0
  2
LCBP0
 70
0
 10
0
 20
0
  0
LINE
  8
1
 10
0
 20
-0.46875
 11
0
 21
0.46875
  0
ENDBLK
  8
0
  0
BLOCK
  8
0
  2
LCBP1
 70
0
 10
0
 20
0
  0
LINE
  8
1
 10
0
 20
-0.625
 11
0
 21
0.625
  0
ENDBLK
  8
0
  0
BLOCK
  8
0
  2
LCBP2
 70
0
 10
0
 20
0
  0
LINE
  8
1
 10
0
 20
-0.9375
 11
0
 21
0.9375
  0
ENDBLK
  8
0
  0
BLOCK
  8
0
  2
LCA1
 70
0
 10
0
 20
0
  0
SOLID
  8
1
 62
7 
 10
0
 20
0
 11
-1.4
 21
-0.275
 12
-1.4
 22
0.275
 13
-1.4
 23
0.275
  0
ENDBLK
  8
0
  0
BLOCK
  8
0
  2
LCA2
 70
0
 10
0
 20
0
  0
SOLID
  8
1
 62
7 
 10
0
 20
0
 11
-1.65
 21
-0.525
 12
-1.65
 22
0.525
 13
-1.65
 23
0.525
  0
ENDBLK
  8
0
  0
BLOCK
  8
0
  2
LCA3
 70
0
 10
0
 20
0
  0
SOLID
  8
1
 62
7 
 10
0
 20
0
 11
-2.15
 21
-1.15
 12
-2.15
 22
1.15
 13
-2.15
 23
1.15
  0
ENDBLK
  8
0
  0
BLOCK
  8
0
  2
LCA1R
 70
0
 10
0
 20
0
  0
SOLID
  8
1
 62
7 
 10
0
 20
0
 11
1.4
 21
-0.275
 12
1.4
 22
0.275
 13
1.4
 23
0.275
  0
ENDBLK
  8
0
  0
BLOCK
  8
0
  2
LCA2R
 70
0
 10
0
 20
0
  0
SOLID
  8
1
 62
7 
 10
0
 20
0
 11
1.65
 21
-0.525
 12
1.65
 22
0.525
 13
1.65
 23
0.525
  0
ENDBLK
  8
0
  0
BLOCK
  8
0
  2
LCA3R
 70
0
 10
0
 20
0
  0
SOLID
  8
1
 62
7 
 10
0
 20
0
 11
2.15
 21
-1.15
 12
2.15
 22
1.15
 13
2.15
 23
1.15
  0
ENDBLK
  8
0
  0
BLOCK
  8
0
  2
B6798_00995364
 70
0
 10
0
 20
0
  0
POLYLINE
  8
1
  6
DASHDOT
 66
1
  0
VERTEX
  8
1
 10
-36
 20
23
  0
VERTEX
  8
1
 10
36
 20
23
  0
VERTEX
  8
1
 10
36
 20
-19
  0
VERTEX
  8
1
 10
-36
 20
-19
  0
VERTEX
  8
1
 10
-36
 20
23
  0
SEQEND
  8
1
  0
LINE
  8
1
  6
DASHDOT
 10
40
 20
-3
 11
36
 21
-3
  0
TEXT
  8
1
 40
2.475
 41
0.75
  1
2
  7
STANDARD
 73
2
 10
39.1584699453552
 20
0.0163934426229755
 11
39.1584699453552
 21
0.0163934426229755
  0
LINE
  8
1
 10
12
 20
-19
 11
12
 21
-23
  0
TEXT
  8
1
 40
2.475
 41
0.75
  1
3
  7
STANDARD
 73
2
 10
8
 20
-23
 11
8
 21
-23
  0
LINE
  8
1
 10
-14
 20
-19
 11
-14
 21
-23
  0
TEXT
  8
1
 40
2.475
 41
0.75
  1
1
  7
STANDARD
 72
2
 10
-36.4655974188913
 20
-1.11554957911929
 11
-36.4655974188913
 21
-1.11554957911929
  0
TEXT
  8
1
 40
2.475
 41
0.75
  1
3
  7
STANDARD
 73
2
 10
-39.9345238095238
 20
-10.6190476190476
 11
-39.9345238095238
 21
-10.6190476190476
  0
LINE
  8
1
 10
-36
 20
-7
 11
-40
 21
-7
  0
LINE
  8
1
 10
-40
 20
-3
 11
-36
 21
-3
  0
LINE
  8
1
 10
29.9502923976608
 20
5
 11
30
 21
-3
  0
POLYLINE
  8
1
 66
1
  0
VERTEX
  8
1
 10
12
 20
-19
  0
VERTEX
  8
1
 10
12
 20
-7
  0
VERTEX
  8
1
 10
16
 20
-7
  0
SEQEND
  8
1
  0
POLYLINE
  8
1
 70
1
 66
1
 40
0.5
 41
0.5
  0
VERTEX
  8
1
 10
29.75
 20
-3
 42
1
  0
VERTEX
  8
1
 10
30.25
 20
-3
 42
1
  0
SEQEND
  8
1
  0
LINE
  8
1
 10
24
 20
-3
 11
36
 21
-3
  0
LINE
  8
1
 10
4
 20
-3
 11
16
 21
-3
  0
LINE
  8
1
 10
-8.3431457505076
 20
-3
 11
-4
 21
-3
  0
POLYLINE
  8
1
 66
1
  0
VERTEX
  8
1
 10
-6
 20
-3
  0
VERTEX
  8
1
 10
-6
 20
-13
  0
VERTEX
  8
1
 10
-4
 20
-13
  0
SEQEND
  8
1
  0
LINE
  8
1
 10
-14
 20
-8.68203497615264
 11
-14
 21
-19
  0
LINE
  8
1
 10
-24
 20
-3
 11
-19.6567812535922
 21
-3
  0
LINE
  8
1
 10
-32
 20
-7
 11
-36
 21
-7
  0
LINE
  8
1
 10
-36
 20
-3
 11
-32
 21
-3
  0
POLYLINE
  8
1
 70
1
 66
1
 40
0.5
 41
0.5
  0
VERTEX
  8
1
 10
-6.25
 20
-3
 42
1
  0
VERTEX
  8
1
 10
-5.75
 20
-3
 42
1
  0
SEQEND
  8
1
  0
POLYLINE
  8
1
 70
1
 66
1
 40
0.5
 41
0.5
  0
VERTEX
  8
1
 10
7.75
 20
-3
 42
1
  0
VERTEX
  8
1
 10
8.25
 20
-3
 42
1
  0
SEQEND
  8
1
  0
POLYLINE
  8
1
 66
1
  0
VERTEX
  8
1
 10
6
 20
-13
  0
VERTEX
  8
1
 10
8
 20
-13
  0
VERTEX
  8
1
 10
8
 20
-3
  0
SEQEND
  8
1
  0
LINE
  8
1
 10
8
 20
3
 11
8
 21
-3
  0
LINE
  8
1
 10
9.76776695296636
 20
5.23223304703364
 11
6.23223304703363
 21
8.76776695296637
  0
INSERT
  8
1
  2
LCA1
 10
6.23223304703363
 20
8.76776695296637
 50
135
  0
CIRCLE
  8
1
 10
8
 20
7
 40
4
  0
LINE
  8
1
 10
34.4502923976608
 20
12.5
 11
25.4502923976608
 21
14.5
  0
INSERT
  8
1
  2
LCA1
 10
25.4502923976608
 20
14.5
 50
167.471192290848
  0
POLYLINE
  8
1
 66
1
  0
VERTEX
  8
1
 10
29.9502923976607
 20
16
  0
VERTEX
  8
1
 10
31.9502923976607
 20
15.5833333333333
  0
VERTEX
  8
1
 10
27.9502923976607
 20
14.75
  0
VERTEX
  8
1
 10
31.9502923976607
 20
13.9166666666667
  0
VERTEX
  8
1
 10
27.9502923976607
 20
13.0833333333333
  0
VERTEX
  8
1
 10
31.9502923976607
 20
12.25
  0
VERTEX
  8
1
 10
27.9502923976607
 20
11.4166666666667
  0
VERTEX
  8
1
 10
29.9502923976607
 20
11
  0
SEQEND
  8
1
  0
POLYLINE
  8
1
 66
1
  0
VERTEX
  8
1
 10
30.2502923976607
 20
6.15
  0
VERTEX
  8
1
 10
30.2502923976607
 20
7.15
  0
VERTEX
  8
1
 10
29.2502923976607
 20
9.65
  0
SEQEND
  8
1
  0
LINE
  8
1
 10
30.2502923976608
 20
8.84999999999999
 11
30.2502923976608
 21
9.84999999999999
  0
POLYLINE
  8
1
 66
1
  0
VERTEX
  8
1
 10
26.9502923976607
 20
5
  0
VERTEX
  8
1
 10
32.9502923976607
 20
5
  0
VERTEX
  8
1
 10
32.9502923976607
 20
11
  0
VERTEX
  8
1
 10
26.9502923976607
 20
11
  0
VERTEX
  8
1
 10
26.9502923976607
 20
5
  0
SEQEND
  8
1
  0
LINE
  8
1
 10
2
 20
-13
 11
6
 21
-13
  0
LINE
  8
1
 10
-4
 20
-13
 11
-0.475996257661121
 21
-13
  0
CIRCLE
  8
1
 10
0.5
 20
-13
 40
1
  0
POLYLINE
  8
1
 66
1
  0
VERTEX
  8
1
 10
0
 20
-15
  0
VERTEX
  8
1
 10
2
 20
-13
  0
VERTEX
  8
1
 10
0
 20
-11
  0
SEQEND
  8
1
  0
POLYLINE
  8
1
 66
1
  0
VERTEX
  8
1
 10
-24
 20
7
  0
VERTEX
  8
1
 10
-32
 20
7
  0
VERTEX
  8
1
 10
-32
 20
-1
  0
VERTEX
  8
1
 10
-24
 20
-1
  0
VERTEX
  8
1
 10
-24
 20
7
  0
SEQEND
  8
1
  0
LINE
  8
1
 10
-32
 20
1
 11
-30
 21
1
  0
INSERT
  8
1
  2
LCBP1
 10
-30
 20
1
 50
0
  0
LINE
  8
1
 10
-32
 20
5
 11
-24
 21
5
  0
INSERT
  8
1
  2
LCA1
 10
-24
 20
5
 50
0
  0
LINE
  8
1
 10
-32
 20
-3
 11
-30
 21
-3
  0
INSERT
  8
1
  2
LCBP1
 10
-30
 20
-3
 50
0
  0
POLYLINE
  8
1
 66
1
  0
VERTEX
  8
1
 10
-24
 20
-1
  0
VERTEX
  8
1
 10
-32
 20
-1
  0
VERTEX
  8
1
 10
-32
 20
-9
  0
VERTEX
  8
1
 10
-24
 20
-9
  0
VERTEX
  8
1
 10
-24
 20
-1
  0
SEQEND
  8
1
  0
LINE
  8
1
 10
-24
 20
-3
 11
-32
 21
-7
  0
INSERT
  8
1
  2
LCA1
 10
-32
 20
-7
 50
-153.434948822922
  0
LINE
  8
1
 10
-28
 20
10
 11
-26
 21
10
  0
LINE
  8
1
 10
-31.5
 20
13
 11
-28.5
 21
13
  0
LINE
  8
1
 10
-29
 20
11.25
 11
-29
 21
13
  0
POLYLINE
  8
1
 66
1
  0
VERTEX
  8
1
 10
-29
 20
11.25
  0
VERTEX
  8
1
 10
-29
 20
10.75
  0
VERTEX
  8
1
 10
-30.2990381056767
 20
10
  0
VERTEX
  8
1
 10
-29
 20
9.25
  0
VERTEX
  8
1
 10
-29
 20
8.75
  0
SEQEND
  8
1
  0
LINE
  8
1
 10
-29
 20
7
 11
-29
 21
8.75
  0
LINE
  8
1
 10
-31
 20
7
 11
-31
 21
13
  0
POLYLINE
  8
1
 66
1
  0
VERTEX
  8
1
 10
18
 20
-14
  0
VERTEX
  8
1
 10
16
 20
-13.5833333333333
  0
VERTEX
  8
1
 10
20
 20
-12.75
  0
VERTEX
  8
1
 10
16
 20
-11.9166666666667
  0
VERTEX
  8
1
 10
20
 20
-11.0833333333333
  0
VERTEX
  8
1
 10
16
 20
-10.25
  0
VERTEX
  8
1
 10
20
 20
-9.41666666666675
  0
VERTEX
  8
1
 10
18
 20
-9
  0
SEQEND
  8
1
  0
POLYLINE
  8
1
 66
1
  0
VERTEX
  8
1
 10
24
 20
7
  0
VERTEX
  8
1
 10
16
 20
7
  0
VERTEX
  8
1
 10
16
 20
-1
  0
VERTEX
  8
1
 10
24
 20
-1
  0
VERTEX
  8
1
 10
24
 20
7
  0
SEQEND
  8
1
  0
LINE
  8
1
 10
16
 20
1
 11
18
 21
1
  0
INSERT
  8
1
  2
LCBP1
 10
18
 20
1
 50
0
  0
LINE
  8
1
 10
16
 20
5
 11
24
 21
5
  0
INSERT
  8
1
  2
LCA1
 10
24
 20
5
 50
0
  0
LINE
  8
1
 10
16
 20
-3
 11
18
 21
-3
  0
INSERT
  8
1
  2
LCBP1
 10
18
 20
-3
 50
0
  0
POLYLINE
  8
1
 66
1
  0
VERTEX
  8
1
 10
24
 20
-1
  0
VERTEX
  8
1
 10
16
 20
-1
  0
VERTEX
  8
1
 10
16
 20
-9
  0
VERTEX
  8
1
 10
24
 20
-9
  0
VERTEX
  8
1
 10
24
 20
-1
  0
SEQEND
  8
1
  0
LINE
  8
1
 10
24
 20
-3
 11
16
 21
-7
  0
INSERT
  8
1
  2
LCA1
 10
16
 20
-7
 50
-153.434948822922
  0
LINE
  8
1
 10
16
 20
11
 11
20
 21
9
  0
POLYLINE
  8
1
 66
1
  0
VERTEX
  8
1
 10
20
 20
13
  0
VERTEX
  8
1
 10
16
 20
13
  0
VERTEX
  8
1
 10
16
 20
7
  0
VERTEX
  8
1
 10
20
 20
7
  0
VERTEX
  8
1
 10
20
 20
13
  0
SEQEND
  8
1
  0
LINE
  8
1
 10
23.5
 20
11
 11
23.5
 21
7
  0
LINE
  8
1
 10
24
 20
11
 11
21
 21
11
  0
LINE
  8
1
 10
21.5
 20
11
 11
21.5
 21
7
  0
LINE
  8
1
 10
20
 20
7
 11
24
 21
7
  0
POLYLINE
  8
1
 66
1
  0
VERTEX
  8
1
 10
18
 20
-14
  0
VERTEX
  8
1
 10
16
 20
-13.5833333333333
  0
VERTEX
  8
1
 10
20
 20
-12.75
  0
VERTEX
  8
1
 10
16
 20
-11.9166666666667
  0
VERTEX
  8
1
 10
20
 20
-11.0833333333333
  0
VERTEX
  8
1
 10
16
 20
-10.25
  0
VERTEX
  8
1
 10
20
 20
-9.41666666666675
  0
VERTEX
  8
1
 10
18
 20
-9
  0
SEQEND
  8
1
  0
POLYLINE
  8
1
 66
1
  0
VERTEX
  8
1
 10
-14
 20
2.6316735228321
  0
VERTEX
  8
1
 10
-19.6568542494924
 20
-3.02518072666027
  0
VERTEX
  8
1
 10
-14
 20
-8.68203497615275
  0
VERTEX
  8
1
 10
-8.3431457505075
 20
-3.02518072666027
  0
VERTEX
  8
1
 10
-14
 20
2.6316735228321
  0
SEQEND
  8
1
  0
POLYLINE
  8
1
 66
1
  0
VERTEX
  8
1
 10
-14
 20
2.6316735228321
  0
VERTEX
  8
1
 10
-19.6568542494924
 20
-3.02518072666027
  0
VERTEX
  8
1
 10
-14
 20
-8.68203497615275
  0
VERTEX
  8
1
 10
-8.3431457505075
 20
-3.02518072666027
  0
VERTEX
  8
1
 10
-14
 20
2.6316735228321
  0
SEQEND
  8
1
  0
POLYLINE
  8
1
 66
1
  0
VERTEX
  8
1
 10
-17.5000206556636
 20
-5.182014320489
  0
VERTEX
  8
1
 10
-14
 20
-8.68203497615275
  0
VERTEX
  8
1
 10
-10.499978063064
 20
-5.18201303921675
  0
VERTEX
  8
1
 10
-10.499978063064
 20
-5.18203497615275
  0
VERTEX
  8
1
 10
-17.4999936699303
 20
-5.18203497615275
  0
SEQEND
  8
1
  0
LINE
  8
1
 10
-15.3786898982066
 20
-5.18202473438642
 11
-14
 21
-6.56071463259299
  0
LINE
  8
1
 10
-14
 20
-6.56071463259299
 11
-12.62135162219
 21
-5.182066254783
  0
LINE
  8
1
 10
-10.4999780630641
 20
-5.18203497615263
 11
-17.4999936699303
 21
-5.18203497615263
  0
LINE
  8
1
  6
DASHED
 10
-13.9999858664972
 20
-5.18203497615263
 11
-13.9999858664972
 21
2.6316735228321
  0
LINE
  8
1
 10
-6.44259788264229
 20
4.27036371433004
 11
2.44287357865983
 21
6.72971259368521
  0
INSERT
  8
1
  2
LCA1
 10
2.44287357865983
 20
6.72971259368521
 50
15.4711922908485
  0
POLYLINE
  8
1
 66
1
  0
VERTEX
  8
1
 10
-1.99988891190037
 20
3.0000231433541
  0
VERTEX
  8
1
 10
0.000111088099632894
 20
3.4166898100208
  0
VERTEX
  8
1
 10
-3.99988891190037
 20
4.2500231433541
  0
VERTEX
  8
1
 10
0.000111088099632894
 20
5.08335647668747
  0
VERTEX
  8
1
 10
-3.99988891190037
 20
5.9166898100208
  0
VERTEX
  8
1
 10
0.000111088099632894
 20
6.7500231433541
  0
VERTEX
  8
1
 10
-3.99988891190037
 20
7.5833564766874
  0
VERTEX
  8
1
 10
-1.99988891190037
 20
8.0000231433541
  0
SEQEND
  8
1
  0
POLYLINE
  8
1
 66
1
  0
VERTEX
  8
1
 10
-4
 20
2
  0
VERTEX
  8
1
 10
-6
 20
1
  0
VERTEX
  8
1
 10
-4
 20
0
  0
SEQEND
  8
1
  0
POLYLINE
  8
1
  6
DOT
 66
1
  0
VERTEX
  8
1
 10
-2
 20
-5
  0
VERTEX
  8
1
 10
-2
 20
-9
  0
VERTEX
  8
1
 10
6
 20
-9
  0
VERTEX
  8
1
 10
6
 20
-5
  0
VERTEX
  8
1
 10
4
 20
-3
  0
SEQEND
  8
1
  0
POLYLINE
  8
1
 66
1
  0
VERTEX
  8
1
 10
-4
 20
-5
  0
VERTEX
  8
1
 10
4
 20
-5
  0
VERTEX
  8
1
 10
4
 20
3
  0
VERTEX
  8
1
 10
-4
 20
3
  0
VERTEX
  8
1
 10
-4
 20
-5
  0
SEQEND
  8
1
  0
LINE
  8
1
 10
4
 20
-3
 11
-4
 21
-3
  0
INSERT
  8
1
  2
LCA1
 10
-4
 20
-3
 50
-180
  0
INSERT
  8
1
  2
LCA1R
 10
4
 20
-3
 50
-180
  0
CIRCLE
  8
CONNECTIONS
 10
-40
 20
-3
 40
0
  0
CIRCLE
  8
CONNECTIONS
 10
-40
 20
-7
 40
0
  0
CIRCLE
  8
CONNECTIONS
 10
40
 20
-3
 40
0
  0
CIRCLE
  8
CONNECTIONS
 10
12
 20
-23
 40
0
  0
CIRCLE
  8
CONNECTIONS
 10
-14
 20
-23
 40
0
  0
CIRCLE
  8
CONNECTIONS
 10
18
 20
13
 40
0
  0
CIRCLE
  8
CONNECTIONS
 10
29.9502923976607
 20
11
 40
0
  0
ENDBLK
  8
0
  0
ENDSEC
  0
SECTION
  2
ENTITIES
  0
INSERT
  8
1
  2
B6798_00995364
 10
40
 20
23
  0
ENDSEC
  0
EOF
