  0
SECTION
  2
HEADER
  9
$LIMMIN
 10
0
 20
0
  9
$LIMMAX
 10
52.5
 20
74.25
  9
$EXTMIN
 10
0
 20
64.0736532728405
  9
$EXTMAX
 10
0
 20
40
  0
ENDSEC
  0
SECTION
  2
TABLES
  0
TABLE
  2
LTYPE
 70
9
  0
LTYPE
  2
CONTINUOUS
 70
64
  3
Solid line
 72
65
 73
0
 40
0
  0
LTYPE
  2
DASHED
 70
64
  3
__ __ __ __ __ __ __ __ __
 72
65
 73
2
 40
0.75
 49
0.5
 49
-0.25
  0
LTYPE
  2
DOT
 70
64
  3
...........................
 72
65
 73
2
 40
0.25
 49
0
 49
-0.25
  0
LTYPE
  2
DASHDOT
 70
64
  3
__ . __ . __ . __ . __ . __ . 
 72
65
 73
4
 40
1
 49
0.5
 49
-0.25
 49
0
 49
-0.25
  0
ENDTAB
  0
TABLE
  2
LAYER
 70
10
  0
LAYER
  2
1
 70
0
 62
7
  6
CONTINUOUS
  0
LAYER
  2
CONNECTIONS
 70
0
 62
-7
  6
CONTINUOUS
  0
ENDTAB
  0
ENDSEC
  0
SECTION
  2
BLOCKS
  0
BLOCK
  8
0
  2
TRICON
 70
0
 10
0
 20
0
  0
POLYLINE
  8
1
 70
1
 66
1
 40
0.5
 41
0.5
  0
VERTEX
  8
1
 10
-0.25
 20
0
 42
1
  0
VERTEX
  8
1
 10
0.25
 20
0
 42
1
  0
SEQEND
  8
1
  0
ENDBLK
  8
0
  0
BLOCK
  8
0
  2
TRICONSMALL
 70
0
 10
0
 20
0
  0
POLYLINE
  8
1
 70
1
 66
1
 40
0.25
 41
0.25
  0
VERTEX
  8
1
 10
-0.125
 20
0
 42
1
  0
VERTEX
  8
1
 10
0.125
 20
0
 42
1
  0
SEQEND
  8
1
  0
ENDBLK
  8
0
  0
BLOCK
  8
0
  2
TRICONCIRCLE
 70
0
 10
0
 20
0
  0
CIRCLE
  8
1
 10
0
 20
0
 40
0.5
  0
ENDBLK
  8
0
  0
BLOCK
  8
0
  2
LCBP0
 70
0
 10
0
 20
0
  0
LINE
  8
1
 10
0
 20
-0.46875
 11
0
 21
0.46875
  0
ENDBLK
  8
0
  0
BLOCK
  8
0
  2
LCBP1
 70
0
 10
0
 20
0
  0
LINE
  8
1
 10
0
 20
-0.625
 11
0
 21
0.625
  0
ENDBLK
  8
0
  0
BLOCK
  8
0
  2
LCBP2
 70
0
 10
0
 20
0
  0
LINE
  8
1
 10
0
 20
-0.9375
 11
0
 21
0.9375
  0
ENDBLK
  8
0
  0
BLOCK
  8
0
  2
LCA1
 70
0
 10
0
 20
0
  0
SOLID
  8
1
 62
7 
 10
0
 20
0
 11
-1.4
 21
-0.275
 12
-1.4
 22
0.275
 13
-1.4
 23
0.275
  0
ENDBLK
  8
0
  0
BLOCK
  8
0
  2
LCA2
 70
0
 10
0
 20
0
  0
SOLID
  8
1
 62
7 
 10
0
 20
0
 11
-1.65
 21
-0.525
 12
-1.65
 22
0.525
 13
-1.65
 23
0.525
  0
ENDBLK
  8
0
  0
BLOCK
  8
0
  2
LCA3
 70
0
 10
0
 20
0
  0
SOLID
  8
1
 62
7 
 10
0
 20
0
 11
-2.15
 21
-1.15
 12
-2.15
 22
1.15
 13
-2.15
 23
1.15
  0
ENDBLK
  8
0
  0
BLOCK
  8
0
  2
LCA1R
 70
0
 10
0
 20
0
  0
SOLID
  8
1
 62
7 
 10
0
 20
0
 11
1.4
 21
-0.275
 12
1.4
 22
0.275
 13
1.4
 23
0.275
  0
ENDBLK
  8
0
  0
BLOCK
  8
0
  2
LCA2R
 70
0
 10
0
 20
0
  0
SOLID
  8
1
 62
7 
 10
0
 20
0
 11
1.65
 21
-0.525
 12
1.65
 22
0.525
 13
1.65
 23
0.525
  0
ENDBLK
  8
0
  0
BLOCK
  8
0
  2
LCA3R
 70
0
 10
0
 20
0
  0
SOLID
  8
1
 62
7 
 10
0
 20
0
 11
2.15
 21
-1.15
 12
2.15
 22
1.15
 13
2.15
 23
1.15
  0
ENDBLK
  8
0
  0
BLOCK
  8
0
  2
B6622_00995346
 70
0
 10
0
 20
0
  0
POLYLINE
  8
1
 66
1
  0
VERTEX
  8
1
 10
-28.0368266364203
 20
20
  0
VERTEX
  8
1
 10
27.9631733635797
 20
20
  0
VERTEX
  8
1
 10
27.9631733635797
 20
-16
  0
VERTEX
  8
1
 10
-28.0368266364203
 20
-16
  0
VERTEX
  8
1
 10
-28.0368266364203
 20
20
  0
SEQEND
  8
1
  0
TEXT
  8
1
 40
2.475
 41
0.75
  1
3
  7
STANDARD
 72
2
 10
-29.1368266364203
 20
-8.3625
 11
-29.1368266364203
 21
-8.3625
  0
TEXT
  8
1
 40
2.475
 41
0.75
  1
1
  7
STANDARD
 72
2
 10
-28.6716056128607
 20
1.0375
 11
-28.6716056128607
 21
1.0375
  0
LINE
  8
1
 10
-6.03682663642026
 20
-16
 11
-6.03682663642026
 21
-20
  0
LINE
  8
1
 10
-28.0368266364203
 20
0
 11
-32.0368266364203
 21
0
  0
LINE
  8
1
 10
-28.0368266364203
 20
-4
 11
-32.0368266364203
 21
-4
  0
TEXT
  8
1
 40
2.475
 41
0.75
  1
2
  7
STANDARD
 73
2
 10
29.6952965817755
 20
1.94114238899603
 11
29.6952965817755
 21
1.94114238899603
  0
LINE
  8
1
 10
28.0368266364203
 20
-0.0752510536269402
 11
32.0368266364203
 21
-0.0752510536269402
  0
LINE
  8
1
 10
20.9631733635797
 20
-10
 11
16.9631733635797
 21
-10
  0
POLYLINE
  8
1
 70
1
 66
1
 40
0.5
 41
0.5
  0
VERTEX
  8
1
 10
20.7131733635797
 20
0
 42
1
  0
VERTEX
  8
1
 10
21.2131733635797
 20
0
 42
1
  0
SEQEND
  8
1
  0
LINE
  8
1
 10
20.9631733635797
 20
0
 11
20.9631733635797
 21
-10
  0
POLYLINE
  8
1
 70
1
 66
1
 40
0.5
 41
0.5
  0
VERTEX
  8
1
 10
3.71317336357974
 20
0
 42
1
  0
VERTEX
  8
1
 10
4.21317336357974
 20
0
 42
1
  0
SEQEND
  8
1
  0
LINE
  8
1
 10
3.96317336357974
 20
-10
 11
3.96317336357974
 21
0
  0
LINE
  8
1
 10
7.96317336357974
 20
-10
 11
3.96317336357974
 21
-10
  0
LINE
  8
1
 10
15.9631733635797
 20
0
 11
27.9631733635797
 21
0
  0
LINE
  8
1
 10
7.96317336357974
 20
0
 11
3.96317336357974
 21
0
  0
LINE
  8
1
 10
-24.0368266364203
 20
-4
 11
-28.0368266364203
 21
-4
  0
LINE
  8
1
 10
-28.0368266364203
 20
0
 11
-24.0368266364203
 21
0
  0
POLYLINE
  8
1
 66
1
  0
VERTEX
  8
1
 10
11.9631733635797
 20
-12
  0
VERTEX
  8
1
 10
13.9631733635797
 20
-10
  0
VERTEX
  8
1
 10
11.9631733635797
 20
-8
  0
SEQEND
  8
1
  0
CIRCLE
  8
1
 10
12.4298400302464
 20
-10
 40
1
  0
LINE
  8
1
 10
11.4631733635797
 20
-10
 11
7.96317336357974
 21
-10
  0
LINE
  8
1
 10
13.9631733635797
 20
-10
 11
16.9631733635797
 21
-10
  0
LINE
  8
1
 10
5.52057548093745
 20
7.27036371433004
 11
14.4060469422396
 21
9.72971259368521
  0
INSERT
  8
1
  2
LCA1
 10
14.4060469422396
 20
9.72971259368521
 50
15.4711922908485
  0
POLYLINE
  8
1
 66
1
  0
VERTEX
  8
1
 10
9.96328445167937
 20
6.0000231433541
  0
VERTEX
  8
1
 10
11.9632844516794
 20
6.4166898100208
  0
VERTEX
  8
1
 10
7.96328445167937
 20
7.2500231433541
  0
VERTEX
  8
1
 10
11.9632844516794
 20
8.08335647668746
  0
VERTEX
  8
1
 10
7.96328445167937
 20
8.9166898100208
  0
VERTEX
  8
1
 10
11.9632844516794
 20
9.7500231433541
  0
VERTEX
  8
1
 10
7.96328445167937
 20
10.5833564766874
  0
VERTEX
  8
1
 10
9.96328445167937
 20
11.0000231433541
  0
SEQEND
  8
1
  0
POLYLINE
  8
1
 66
1
  0
VERTEX
  8
1
 10
7.96317336357974
 20
5
  0
VERTEX
  8
1
 10
5.96317336357974
 20
4
  0
VERTEX
  8
1
 10
7.96317336357974
 20
3
  0
SEQEND
  8
1
  0
POLYLINE
  8
1
  6
DOT
 66
1
  0
VERTEX
  8
1
 10
9.96317336357974
 20
-2
  0
VERTEX
  8
1
 10
9.96317336357974
 20
-6
  0
VERTEX
  8
1
 10
17.9631733635797
 20
-6
  0
VERTEX
  8
1
 10
17.9631733635797
 20
-2
  0
VERTEX
  8
1
 10
15.9631733635797
 20
0
  0
SEQEND
  8
1
  0
POLYLINE
  8
1
 66
1
  0
VERTEX
  8
1
 10
7.96317336357974
 20
-2
  0
VERTEX
  8
1
 10
15.9631733635797
 20
-2
  0
VERTEX
  8
1
 10
15.9631733635797
 20
6
  0
VERTEX
  8
1
 10
7.96317336357974
 20
6
  0
VERTEX
  8
1
 10
7.96317336357974
 20
-2
  0
SEQEND
  8
1
  0
LINE
  8
1
 10
15.9631733635797
 20
0
 11
7.96317336357974
 21
0
  0
INSERT
  8
1
  2
LCA1
 10
7.96317336357974
 20
0
 50
-180
  0
INSERT
  8
1
  2
LCA1R
 10
15.9631733635797
 20
0
 50
-180
  0
LINE
  8
1
 10
20.9631733635797
 20
4
 11
20.9631733635797
 21
0
  0
CIRCLE
  8
1
 10
20.9631733635797
 20
8
 40
4
  0
LINE
  8
1
 10
22.7309403165461
 20
6.23223304703364
 11
19.1954064106134
 21
9.76776695296637
  0
INSERT
  8
1
  2
LCA1
 10
19.1954064106134
 20
9.76776695296637
 50
135
  0
LINE
  8
1
 10
-6.03682663642026
 20
-5.65696
 11
-6.03682663642026
 21
-16
  0
LINE
  8
1
 10
-0.379972386927851
 20
-0.000105750507633691
 11
3.95336094640544
 21
-0.000105750507633691
  0
LINE
  8
1
 10
-16.0466390535946
 20
-0.000105750507633691
 11
-11.6936808859126
 21
-0.000105750507633691
  0
LINE
  8
1
  6
DASHED
 10
-6.04659223389135
 20
-3.64714758282569
 11
-6.04659223389135
 21
5.60970666666667
  0
LINE
  8
1
 10
-8.04658480012233
 20
-3.64714758282569
 11
-4.04659966766038
 21
-3.64714758282569
  0
POLYLINE
  8
1
 66
1
  0
VERTEX
  8
1
 10
-8.0465848001223
 20
-3.64717470956183
  0
VERTEX
  8
1
 10
-6.04661192685855
 20
-5.6471475828257
  0
VERTEX
  8
1
 10
-4.04659966766032
 20
-3.64713532362763
  0
SEQEND
  8
1
  0
POLYLINE
  8
1
 66
1
  0
VERTEX
  8
1
 10
-6.04663905359456
 20
5.66656091615904
  0
VERTEX
  8
1
 10
-11.7034933030871
 20
0.00970666666663078
  0
VERTEX
  8
1
 10
-6.04663905359456
 20
-5.6471475828257
  0
VERTEX
  8
1
 10
-0.389784804102059
 20
0.00970666666663078
  0
VERTEX
  8
1
 10
-6.04663905359456
 20
5.66656091615904
  0
SEQEND
  8
1
  0
POLYLINE
  8
1
 66
1
  0
VERTEX
  8
1
 10
-24.0368266364203
 20
-10.5
  0
VERTEX
  8
1
 10
-24.0368266364203
 20
-12
  0
VERTEX
  8
1
 10
-20.0368266364203
 20
-12
  0
VERTEX
  8
1
 10
-20.0368266364203
 20
-10.5
  0
SEQEND
  8
1
  0
LINE
  8
1
 10
-21.0368266364203
 20
-6
 11
-21.0368266364203
 21
-12
  0
LINE
  8
1
 10
-23.0368266364203
 20
-12
 11
-23.0368266364203
 21
-6
  0
POLYLINE
  8
1
 66
1
  0
VERTEX
  8
1
 10
-20.0368266364203
 20
14.5
  0
VERTEX
  8
1
 10
-20.0368266364203
 20
16
  0
VERTEX
  8
1
 10
-24.0368266364203
 20
16
  0
VERTEX
  8
1
 10
-24.0368266364203
 20
14.5
  0
SEQEND
  8
1
  0
LINE
  8
1
 10
-23.0368266364203
 20
10
 11
-23.0368266364203
 21
16
  0
LINE
  8
1
 10
-21.0368266364203
 20
16
 11
-21.0368266364203
 21
10
  0
LINE
  8
1
 10
-24.0368266364203
 20
4
 11
-22.0368266364203
 21
4
  0
INSERT
  8
1
  2
LCBP1
 10
-22.0368266364203
 20
4
 50
0
  0
POLYLINE
  8
1
 66
1
  0
VERTEX
  8
1
 10
-16.0368266364203
 20
10
  0
VERTEX
  8
1
 10
-24.0368266364203
 20
10
  0
VERTEX
  8
1
 10
-24.0368266364203
 20
2
  0
VERTEX
  8
1
 10
-16.0368266364203
 20
2
  0
VERTEX
  8
1
 10
-16.0368266364203
 20
10
  0
SEQEND
  8
1
  0
LINE
  8
1
 10
-24.0368266364203
 20
8
 11
-16.0368266364203
 21
8
  0
INSERT
  8
1
  2
LCA1
 10
-16.0368266364203
 20
8
 50
0
  0
INSERT
  8
1
  2
LCA1R
 10
-24.0368266364203
 20
8
 50
0
  0
LINE
  8
1
 10
-24.0368266364203
 20
0
 11
-22.0368266364203
 21
0
  0
INSERT
  8
1
  2
LCBP1
 10
-22.0368266364203
 20
0
 50
0
  0
POLYLINE
  8
1
 66
1
  0
VERTEX
  8
1
 10
-16.0368266364203
 20
2
  0
VERTEX
  8
1
 10
-24.0368266364203
 20
2
  0
VERTEX
  8
1
 10
-24.0368266364203
 20
-6
  0
VERTEX
  8
1
 10
-16.0368266364203
 20
-6
  0
VERTEX
  8
1
 10
-16.0368266364203
 20
2
  0
SEQEND
  8
1
  0
LINE
  8
1
 10
-16.0368266364203
 20
0
 11
-24.0368266364203
 21
-4
  0
INSERT
  8
1
  2
LCA1
 10
-24.0368266364203
 20
-4
 50
-153.434948822922
  0
INSERT
  8
1
  2
LCA1R
 10
-16.0368266364203
 20
0
 50
-153.434948822922
  0
CIRCLE
  8
CONNECTIONS
 10
32.0368266364203
 20
-0.0752510536269402
 40
0
  0
CIRCLE
  8
CONNECTIONS
 10
-32.0368266364203
 20
0
 40
0
  0
CIRCLE
  8
CONNECTIONS
 10
-32.0368266364203
 20
-4
 40
0
  0
ENDBLK
  8
0
  0
ENDSEC
  0
SECTION
  2
ENTITIES
  0
INSERT
  8
1
  2
B6622_00995346
 10
32.0368266364203
 20
20
  0
ENDSEC
  0
EOF
