  0
SECTION
  2
HEADER
  9
$LIMMIN
 10
0
 20
0
  9
$LIMMAX
 10
52.5
 20
74.25
  9
$EXTMIN
 10
0
 20
74
  9
$EXTMAX
 10
0
 20
41.9752510536269
  0
ENDSEC
  0
SECTION
  2
TABLES
  0
TABLE
  2
LTYPE
 70
9
  0
LTYPE
  2
CONTINUOUS
 70
64
  3
Solid line
 72
65
 73
0
 40
0
  0
LTYPE
  2
DASHED
 70
64
  3
__ __ __ __ __ __ __ __ __
 72
65
 73
2
 40
0.75
 49
0.5
 49
-0.25
  0
LTYPE
  2
DOT
 70
64
  3
...........................
 72
65
 73
2
 40
0.25
 49
0
 49
-0.25
  0
LTYPE
  2
DASHDOT
 70
64
  3
__ . __ . __ . __ . __ . __ . 
 72
65
 73
4
 40
1
 49
0.5
 49
-0.25
 49
0
 49
-0.25
  0
ENDTAB
  0
TABLE
  2
LAYER
 70
10
  0
LAYER
  2
1
 70
0
 62
7
  6
CONTINUOUS
  0
LAYER
  2
CONNECTIONS
 70
0
 62
-7
  6
CONTINUOUS
  0
ENDTAB
  0
ENDSEC
  0
SECTION
  2
BLOCKS
  0
BLOCK
  8
0
  2
TRICON
 70
0
 10
0
 20
0
  0
POLYLINE
  8
1
 70
1
 66
1
 40
0.5
 41
0.5
  0
VERTEX
  8
1
 10
-0.25
 20
0
 42
1
  0
VERTEX
  8
1
 10
0.25
 20
0
 42
1
  0
SEQEND
  8
1
  0
ENDBLK
  8
0
  0
BLOCK
  8
0
  2
TRICONSMALL
 70
0
 10
0
 20
0
  0
POLYLINE
  8
1
 70
1
 66
1
 40
0.25
 41
0.25
  0
VERTEX
  8
1
 10
-0.125
 20
0
 42
1
  0
VERTEX
  8
1
 10
0.125
 20
0
 42
1
  0
SEQEND
  8
1
  0
ENDBLK
  8
0
  0
BLOCK
  8
0
  2
TRICONCIRCLE
 70
0
 10
0
 20
0
  0
CIRCLE
  8
1
 10
0
 20
0
 40
0.5
  0
ENDBLK
  8
0
  0
BLOCK
  8
0
  2
LCBP0
 70
0
 10
0
 20
0
  0
LINE
  8
1
 10
0
 20
-0.46875
 11
0
 21
0.46875
  0
ENDBLK
  8
0
  0
BLOCK
  8
0
  2
LCBP1
 70
0
 10
0
 20
0
  0
LINE
  8
1
 10
0
 20
-0.625
 11
0
 21
0.625
  0
ENDBLK
  8
0
  0
BLOCK
  8
0
  2
LCBP2
 70
0
 10
0
 20
0
  0
LINE
  8
1
 10
0
 20
-0.9375
 11
0
 21
0.9375
  0
ENDBLK
  8
0
  0
BLOCK
  8
0
  2
LCA1
 70
0
 10
0
 20
0
  0
SOLID
  8
1
 62
7 
 10
0
 20
0
 11
-1.4
 21
-0.275
 12
-1.4
 22
0.275
 13
-1.4
 23
0.275
  0
ENDBLK
  8
0
  0
BLOCK
  8
0
  2
LCA2
 70
0
 10
0
 20
0
  0
SOLID
  8
1
 62
7 
 10
0
 20
0
 11
-1.65
 21
-0.525
 12
-1.65
 22
0.525
 13
-1.65
 23
0.525
  0
ENDBLK
  8
0
  0
BLOCK
  8
0
  2
LCA3
 70
0
 10
0
 20
0
  0
SOLID
  8
1
 62
7 
 10
0
 20
0
 11
-2.15
 21
-1.15
 12
-2.15
 22
1.15
 13
-2.15
 23
1.15
  0
ENDBLK
  8
0
  0
BLOCK
  8
0
  2
LCA1R
 70
0
 10
0
 20
0
  0
SOLID
  8
1
 62
7 
 10
0
 20
0
 11
1.4
 21
-0.275
 12
1.4
 22
0.275
 13
1.4
 23
0.275
  0
ENDBLK
  8
0
  0
BLOCK
  8
0
  2
LCA2R
 70
0
 10
0
 20
0
  0
SOLID
  8
1
 62
7 
 10
0
 20
0
 11
1.65
 21
-0.525
 12
1.65
 22
0.525
 13
1.65
 23
0.525
  0
ENDBLK
  8
0
  0
BLOCK
  8
0
  2
LCA3R
 70
0
 10
0
 20
0
  0
SOLID
  8
1
 62
7 
 10
0
 20
0
 11
2.15
 21
-1.15
 12
2.15
 22
1.15
 13
2.15
 23
1.15
  0
ENDBLK
  8
0
  0
BLOCK
  8
0
  2
B6452_00995345
 70
0
 10
0
 20
0
  0
POLYLINE
  8
1
 66
1
  0
VERTEX
  8
1
 10
-32.9736532728405
 20
18.9876255268135
  0
VERTEX
  8
1
 10
33.0263467271595
 20
18.9876255268135
  0
VERTEX
  8
1
 10
33.0263467271595
 20
-17.0123744731865
  0
VERTEX
  8
1
 10
-32.9736532728405
 20
-17.0123744731865
  0
VERTEX
  8
1
 10
-32.9736532728405
 20
18.9876255268135
  0
SEQEND
  8
1
  0
LINE
  8
1
 10
-37
 20
-4.98762552681347
 11
-33
 21
-4.98762552681347
  0
LINE
  8
1
 10
-37
 20
-0.987625526813472
 11
-33
 21
-0.987625526813472
  0
TEXT
  8
1
 40
2.475
 41
0.75
  1
1
  7
STANDARD
 72
2
 10
-33.4655974188912
 20
0.89682489406724
 11
-33.4655974188912
 21
0.89682489406724
  0
TEXT
  8
1
 40
2.475
 41
0.75
  1
3
  7
STANDARD
 73
2
 10
-36.9345238095238
 20
-8.60667314586109
 11
-36.9345238095238
 21
-8.60667314586109
  0
LINE
  8
1
 10
33
 20
-0.987625526813472
 11
37
 21
-0.987625526813472
  0
TEXT
  8
1
 40
2.475
 41
0.75
  1
2
  7
STANDARD
 73
2
 10
34.1584699453552
 20
2.0287679158095
 11
34.1584699453552
 21
2.0287679158095
  0
LINE
  8
1
 10
-11
 20
-16.9876255268135
 11
-11
 21
-20.9876255268135
  0
LINE
  8
1
 10
-28.9736532728405
 20
-5.01237447318653
 11
-32.9736532728405
 21
-5.01237447318653
  0
LINE
  8
1
 10
-10.9736532728405
 20
-17.0123744731865
 11
-10.9736532728405
 21
-15.0123744731865
  0
LINE
  8
1
 10
11.0263467271595
 20
-1.01237447318653
 11
33.0263467271595
 21
-1.01237447318653
  0
LINE
  8
1
 10
-0.973653272840508
 20
-1.01237447318653
 11
3.02634672715949
 21
-1.01237447318653
  0
LINE
  8
1
 10
-32.9736532728405
 20
-1.01237447318653
 11
-28.9736532728405
 21
-1.01237447318653
  0
LINE
  8
1
 10
25.0263467271595
 20
-17.0123744731865
 11
25.0263467271595
 21
18.9876255268135
  0
LINE
  8
1
 10
16.0263467271595
 20
-11.0123744731865
 11
12.0263467271595
 21
-11.0123744731865
  0
POLYLINE
  8
1
 70
1
 66
1
 40
0.5
 41
0.5
  0
VERTEX
  8
1
 10
15.7763467271595
 20
-1.01237447318653
 42
1
  0
VERTEX
  8
1
 10
16.2763467271595
 20
-1.01237447318653
 42
1
  0
SEQEND
  8
1
  0
LINE
  8
1
 10
16.0263467271595
 20
-1.01237447318653
 11
16.0263467271595
 21
-11.0123744731865
  0
POLYLINE
  8
1
 70
1
 66
1
 40
0.5
 41
0.5
  0
VERTEX
  8
1
 10
-1.22365327284051
 20
-1.01237447318653
 42
1
  0
VERTEX
  8
1
 10
-0.723653272840508
 20
-1.01237447318653
 42
1
  0
SEQEND
  8
1
  0
LINE
  8
1
 10
-0.973653272840508
 20
-11.0123744731865
 11
-0.973653272840508
 21
-1.01237447318653
  0
LINE
  8
1
 10
3.02634672715949
 20
-11.0123744731865
 11
-0.973653272840508
 21
-11.0123744731865
  0
LINE
  8
1
 10
25.0263467271595
 20
18.9876255268135
 11
25.0263467271595
 21
20.9876255268135
  0
INSERT
  8
1
  2
LCBP1
 10
25.0263467271595
 20
20.9876255268135
 50
90
  0
LINE
  8
1
 10
25.0263467271595
 20
-17.0123744731865
 11
25.0263467271595
 21
-19.0123744731865
  0
INSERT
  8
1
  2
LCBP1
 10
25.0263467271595
 20
-19.0123744731865
 50
-90
  0
POLYLINE
  8
1
 66
1
  0
VERTEX
  8
1
 10
7.02634672715949
 20
-13.0123744731865
  0
VERTEX
  8
1
 10
9.02634672715949
 20
-11.0123744731865
  0
VERTEX
  8
1
 10
7.02634672715949
 20
-9.01237447318653
  0
SEQEND
  8
1
  0
CIRCLE
  8
1
 10
7.49301339382616
 20
-11.0123744731865
 40
1
  0
LINE
  8
1
 10
6.52634672715949
 20
-11.0123744731865
 11
3.02634672715949
 21
-11.0123744731865
  0
LINE
  8
1
 10
9.02634672715949
 20
-11.0123744731865
 11
12.0263467271595
 21
-11.0123744731865
  0
POLYLINE
  8
1
 70
1
 66
1
 40
0.5
 41
0.5
  0
VERTEX
  8
1
 10
24.7763467271595
 20
-1.01237447318653
 42
1
  0
VERTEX
  8
1
 10
25.2763467271595
 20
-1.01237447318653
 42
1
  0
SEQEND
  8
1
  0
POLYLINE
  8
1
 66
1
  0
VERTEX
  8
1
 10
21.0263467271595
 20
1.98762552681347
  0
VERTEX
  8
1
 10
29.0263467271595
 20
1.98762552681347
  0
VERTEX
  8
1
 10
29.0263467271595
 20
-4.01237447318653
  0
VERTEX
  8
1
 10
21.0263467271595
 20
-4.01237447318653
  0
VERTEX
  8
1
 10
21.0263467271595
 20
1.98762552681347
  0
SEQEND
  8
1
  0
LINE
  8
1
 10
0.583748844517203
 20
6.25798924114351
 11
9.46922030581932
 21
8.71733812049868
  0
INSERT
  8
1
  2
LCA1
 10
9.46922030581932
 20
8.71733812049868
 50
15.4711922908485
  0
POLYLINE
  8
1
 66
1
  0
VERTEX
  8
1
 10
5.02645781525912
 20
4.98764867016757
  0
VERTEX
  8
1
 10
7.02645781525912
 20
5.40431533683427
  0
VERTEX
  8
1
 10
3.02645781525912
 20
6.23764867016757
  0
VERTEX
  8
1
 10
7.02645781525912
 20
7.07098200350092
  0
VERTEX
  8
1
 10
3.02645781525912
 20
7.90431533683427
  0
VERTEX
  8
1
 10
7.02645781525912
 20
8.73764867016757
  0
VERTEX
  8
1
 10
3.02645781525912
 20
9.57098200350087
  0
VERTEX
  8
1
 10
5.02645781525912
 20
9.98764867016757
  0
SEQEND
  8
1
  0
POLYLINE
  8
1
 66
1
  0
VERTEX
  8
1
 10
3.02634672715949
 20
3.98762552681347
  0
VERTEX
  8
1
 10
1.02634672715949
 20
2.98762552681347
  0
VERTEX
  8
1
 10
3.02634672715949
 20
1.98762552681347
  0
SEQEND
  8
1
  0
POLYLINE
  8
1
  6
DOT
 66
1
  0
VERTEX
  8
1
 10
5.02634672715949
 20
-3.01237447318653
  0
VERTEX
  8
1
 10
5.02634672715949
 20
-7.01237447318653
  0
VERTEX
  8
1
 10
13.0263467271595
 20
-7.01237447318653
  0
VERTEX
  8
1
 10
13.0263467271595
 20
-3.01237447318653
  0
VERTEX
  8
1
 10
11.0263467271595
 20
-1.01237447318653
  0
SEQEND
  8
1
  0
POLYLINE
  8
1
 66
1
  0
VERTEX
  8
1
 10
3.02634672715949
 20
-3.01237447318653
  0
VERTEX
  8
1
 10
11.0263467271595
 20
-3.01237447318653
  0
VERTEX
  8
1
 10
11.0263467271595
 20
4.98762552681347
  0
VERTEX
  8
1
 10
3.02634672715949
 20
4.98762552681347
  0
VERTEX
  8
1
 10
3.02634672715949
 20
-3.01237447318653
  0
SEQEND
  8
1
  0
LINE
  8
1
 10
11.0263467271595
 20
-1.01237447318653
 11
3.02634672715949
 21
-1.01237447318653
  0
INSERT
  8
1
  2
LCA1
 10
3.02634672715949
 20
-1.01237447318653
 50
-180
  0
INSERT
  8
1
  2
LCA1R
 10
11.0263467271595
 20
-1.01237447318653
 50
-180
  0
LINE
  8
1
 10
-5.3167990233481
 20
-1.01248022369416
 11
-0.983465690014806
 21
-1.01248022369416
  0
LINE
  8
1
 10
-20.9834656900148
 20
-1.01248022369416
 11
-16.6305075223329
 21
-1.01248022369416
  0
LINE
  8
1
  6
DASHED
 10
-10.9834188703116
 20
-4.65952205601222
 11
-10.9834188703116
 21
4.59733219348014
  0
LINE
  8
1
 10
-12.9834114365426
 20
-4.65952205601222
 11
-8.98342630408063
 21
-4.65952205601222
  0
POLYLINE
  8
1
 66
1
  0
VERTEX
  8
1
 10
-12.9834114365425
 20
-4.65954918274836
  0
VERTEX
  8
1
 10
-10.9834385632788
 20
-6.65952205601223
  0
VERTEX
  8
1
 10
-8.98342630408057
 20
-4.65950979681418
  0
SEQEND
  8
1
  0
POLYLINE
  8
1
 66
1
  0
VERTEX
  8
1
 10
-10.9834656900148
 20
4.6541864429725
  0
VERTEX
  8
1
 10
-16.6403199395073
 20
-1.00266780651988
  0
VERTEX
  8
1
 10
-10.9834656900148
 20
-6.65952205601223
  0
VERTEX
  8
1
 10
-5.32661144052231
 20
-1.00266780651988
  0
VERTEX
  8
1
 10
-10.9834656900148
 20
4.6541864429725
  0
SEQEND
  8
1
  0
LINE
  8
1
 10
-10.9736532728405
 20
-6.66933447318653
 11
-10.9736532728405
 21
-15.0123744731865
  0
LINE
  8
1
 10
16.0263467271595
 20
2.98762552681347
 11
16.0263467271595
 21
-1.01237447318653
  0
CIRCLE
  8
1
 10
16.0263467271595
 20
6.98762552681347
 40
4
  0
LINE
  8
1
 10
17.7941136801259
 20
5.21985857384711
 11
14.2585797741931
 21
8.75539247977984
  0
INSERT
  8
1
  2
LCA1
 10
14.2585797741931
 20
8.75539247977984
 50
135
  0
POLYLINE
  8
1
 66
1
  0
VERTEX
  8
1
 10
-28.9736532728405
 20
-11.5123744731865
  0
VERTEX
  8
1
 10
-28.9736532728405
 20
-13.0123744731865
  0
VERTEX
  8
1
 10
-24.9736532728405
 20
-13.0123744731865
  0
VERTEX
  8
1
 10
-24.9736532728405
 20
-11.5123744731865
  0
SEQEND
  8
1
  0
LINE
  8
1
 10
-25.9736532728405
 20
-7.01237447318653
 11
-25.9736532728405
 21
-13.0123744731865
  0
LINE
  8
1
 10
-27.9736532728405
 20
-13.0123744731865
 11
-27.9736532728405
 21
-7.01237447318653
  0
POLYLINE
  8
1
 66
1
  0
VERTEX
  8
1
 10
-24.9736532728405
 20
13.4876255268135
  0
VERTEX
  8
1
 10
-24.9736532728405
 20
14.9876255268135
  0
VERTEX
  8
1
 10
-28.9736532728405
 20
14.9876255268135
  0
VERTEX
  8
1
 10
-28.9736532728405
 20
13.4876255268135
  0
SEQEND
  8
1
  0
LINE
  8
1
 10
-27.9736532728405
 20
8.98762552681347
 11
-27.9736532728405
 21
14.9876255268135
  0
LINE
  8
1
 10
-25.9736532728405
 20
14.9876255268135
 11
-25.9736532728405
 21
8.98762552681347
  0
LINE
  8
1
 10
-28.9736532728405
 20
2.98762552681347
 11
-26.9736532728405
 21
2.98762552681347
  0
INSERT
  8
1
  2
LCBP1
 10
-26.9736532728405
 20
2.98762552681347
 50
0
  0
POLYLINE
  8
1
 66
1
  0
VERTEX
  8
1
 10
-20.9736532728405
 20
8.98762552681347
  0
VERTEX
  8
1
 10
-28.9736532728405
 20
8.98762552681347
  0
VERTEX
  8
1
 10
-28.9736532728405
 20
0.987625526813467
  0
VERTEX
  8
1
 10
-20.9736532728405
 20
0.987625526813467
  0
VERTEX
  8
1
 10
-20.9736532728405
 20
8.98762552681347
  0
SEQEND
  8
1
  0
LINE
  8
1
 10
-28.9736532728405
 20
6.98762552681347
 11
-20.9736532728405
 21
6.98762552681347
  0
INSERT
  8
1
  2
LCA1
 10
-20.9736532728405
 20
6.98762552681347
 50
0
  0
INSERT
  8
1
  2
LCA1R
 10
-28.9736532728405
 20
6.98762552681347
 50
0
  0
LINE
  8
1
 10
-28.9736532728405
 20
-1.01237447318653
 11
-26.9736532728405
 21
-1.01237447318653
  0
INSERT
  8
1
  2
LCBP1
 10
-26.9736532728405
 20
-1.01237447318653
 50
0
  0
POLYLINE
  8
1
 66
1
  0
VERTEX
  8
1
 10
-20.9736532728405
 20
0.987625526813467
  0
VERTEX
  8
1
 10
-28.9736532728405
 20
0.987625526813467
  0
VERTEX
  8
1
 10
-28.9736532728405
 20
-7.01237447318653
  0
VERTEX
  8
1
 10
-20.9736532728405
 20
-7.01237447318653
  0
VERTEX
  8
1
 10
-20.9736532728405
 20
0.987625526813467
  0
SEQEND
  8
1
  0
LINE
  8
1
 10
-20.9736532728405
 20
-1.01237447318653
 11
-28.9736532728405
 21
-5.01237447318653
  0
INSERT
  8
1
  2
LCA1
 10
-28.9736532728405
 20
-5.01237447318653
 50
-153.434948822922
  0
INSERT
  8
1
  2
LCA1R
 10
-20.9736532728405
 20
-1.01237447318653
 50
-153.434948822922
  0
CIRCLE
  8
CONNECTIONS
 10
37
 20
-0.987625526813472
 40
0
  0
CIRCLE
  8
CONNECTIONS
 10
-37
 20
-0.987625526813472
 40
0
  0
CIRCLE
  8
CONNECTIONS
 10
-37
 20
-4.98762552681347
 40
0
  0
CIRCLE
  8
CONNECTIONS
 10
-11
 20
-20.9876255268135
 40
0
  0
ENDBLK
  8
0
  0
ENDSEC
  0
SECTION
  2
ENTITIES
  0
INSERT
  8
1
  2
B6452_00995345
 10
37
 20
20.9876255268135
  0
ENDSEC
  0
EOF
