  0
SECTION
  2
HEADER
  9
$LIMMIN
 10
0
 20
0
  9
$LIMMAX
 10
52.5
 20
74.25
  9
$EXTMIN
 10
0
 20
32.5581218910217
  9
$EXTMAX
 10
0
 20
28.0824219385783
  0
ENDSEC
  0
SECTION
  2
TABLES
  0
TABLE
  2
LTYPE
 70
9
  0
LTYPE
  2
CONTINUOUS
 70
64
  3
Solid line
 72
65
 73
0
 40
0
  0
LTYPE
  2
DASHED
 70
64
  3
__ __ __ __ __ __ __ __ __
 72
65
 73
2
 40
0.75
 49
0.5
 49
-0.25
  0
LTYPE
  2
DOT
 70
64
  3
...........................
 72
65
 73
2
 40
0.25
 49
0
 49
-0.25
  0
LTYPE
  2
DASHDOT
 70
64
  3
__ . __ . __ . __ . __ . __ . 
 72
65
 73
4
 40
1
 49
0.5
 49
-0.25
 49
0
 49
-0.25
  0
ENDTAB
  0
TABLE
  2
LAYER
 70
10
  0
LAYER
  2
1
 70
0
 62
7
  6
CONTINUOUS
  0
LAYER
  2
CONNECTIONS
 70
0
 62
-7
  6
CONTINUOUS
  0
ENDTAB
  0
ENDSEC
  0
SECTION
  2
BLOCKS
  0
BLOCK
  8
0
  2
TRICON
 70
0
 10
0
 20
0
  0
POLYLINE
  8
1
 70
1
 66
1
 40
0.5
 41
0.5
  0
VERTEX
  8
1
 10
-0.25
 20
0
 42
1
  0
VERTEX
  8
1
 10
0.25
 20
0
 42
1
  0
SEQEND
  8
1
  0
ENDBLK
  8
0
  0
BLOCK
  8
0
  2
TRICONSMALL
 70
0
 10
0
 20
0
  0
POLYLINE
  8
1
 70
1
 66
1
 40
0.25
 41
0.25
  0
VERTEX
  8
1
 10
-0.125
 20
0
 42
1
  0
VERTEX
  8
1
 10
0.125
 20
0
 42
1
  0
SEQEND
  8
1
  0
ENDBLK
  8
0
  0
BLOCK
  8
0
  2
TRICONCIRCLE
 70
0
 10
0
 20
0
  0
CIRCLE
  8
1
 10
0
 20
0
 40
0.5
  0
ENDBLK
  8
0
  0
BLOCK
  8
0
  2
LCBP0
 70
0
 10
0
 20
0
  0
LINE
  8
1
 10
0
 20
-0.46875
 11
0
 21
0.46875
  0
ENDBLK
  8
0
  0
BLOCK
  8
0
  2
LCBP1
 70
0
 10
0
 20
0
  0
LINE
  8
1
 10
0
 20
-0.625
 11
0
 21
0.625
  0
ENDBLK
  8
0
  0
BLOCK
  8
0
  2
LCBP2
 70
0
 10
0
 20
0
  0
LINE
  8
1
 10
0
 20
-0.9375
 11
0
 21
0.9375
  0
ENDBLK
  8
0
  0
BLOCK
  8
0
  2
LCA1
 70
0
 10
0
 20
0
  0
SOLID
  8
1
 62
7 
 10
0
 20
0
 11
-1.4
 21
-0.275
 12
-1.4
 22
0.275
 13
-1.4
 23
0.275
  0
ENDBLK
  8
0
  0
BLOCK
  8
0
  2
LCA2
 70
0
 10
0
 20
0
  0
SOLID
  8
1
 62
7 
 10
0
 20
0
 11
-1.65
 21
-0.525
 12
-1.65
 22
0.525
 13
-1.65
 23
0.525
  0
ENDBLK
  8
0
  0
BLOCK
  8
0
  2
LCA3
 70
0
 10
0
 20
0
  0
SOLID
  8
1
 62
7 
 10
0
 20
0
 11
-2.15
 21
-1.15
 12
-2.15
 22
1.15
 13
-2.15
 23
1.15
  0
ENDBLK
  8
0
  0
BLOCK
  8
0
  2
LCA1R
 70
0
 10
0
 20
0
  0
SOLID
  8
1
 62
7 
 10
0
 20
0
 11
1.4
 21
-0.275
 12
1.4
 22
0.275
 13
1.4
 23
0.275
  0
ENDBLK
  8
0
  0
BLOCK
  8
0
  2
LCA2R
 70
0
 10
0
 20
0
  0
SOLID
  8
1
 62
7 
 10
0
 20
0
 11
1.65
 21
-0.525
 12
1.65
 22
0.525
 13
1.65
 23
0.525
  0
ENDBLK
  8
0
  0
BLOCK
  8
0
  2
LCA3R
 70
0
 10
0
 20
0
  0
SOLID
  8
1
 62
7 
 10
0
 20
0
 11
2.15
 21
-1.15
 12
2.15
 22
1.15
 13
2.15
 23
1.15
  0
ENDBLK
  8
0
  0
BLOCK
  8
0
  2
B4270_00995300
 70
0
 10
0
 20
0
  0
POLYLINE
  8
1
 66
1
  0
VERTEX
  8
1
 10
-16.279061088562
 20
-4.0412109375
  0
VERTEX
  8
1
 10
-6.27906108856201
 20
-4.0412109375
  0
VERTEX
  8
1
 10
-6.27906108856201
 20
-14.0412109375
  0
VERTEX
  8
1
 10
-16.279061088562
 20
-14.0412109375
  0
VERTEX
  8
1
 10
-16.279061088562
 20
-4.0412109375
  0
SEQEND
  8
1
  0
POLYLINE
  8
1
 66
1
  0
VERTEX
  8
1
 10
-16.279061088562
 20
11.9587890625
  0
VERTEX
  8
1
 10
-6.27906108856201
 20
11.9587890625
  0
VERTEX
  8
1
 10
-6.27906108856201
 20
1.9587890625
  0
VERTEX
  8
1
 10
-16.279061088562
 20
1.9587890625
  0
VERTEX
  8
1
 10
-16.279061088562
 20
11.9587890625
  0
SEQEND
  8
1
  0
TEXT
  8
1
 40
1.08
 41
0.75
  1
RL
  7
STANDARD
 72
1
 73
2
 10
7.68754554748535
 20
-7.25787137985229
 11
7.68754554748535
 21
-7.25787137985229
  0
TEXT
  8
1
 40
1.08
 41
0.75
  1
RL
  7
STANDARD
 72
1
 73
2
 10
7.70122879981994
 20
8.7587890625
 11
7.70122879981994
 21
8.7587890625
  0
TEXT
  8
1
 40
1.44
 41
0.75
  1
+
  7
STANDARD
 73
2
 10
14.2015151596069
 20
-12.5389970143636
 11
14.2015151596069
 21
-12.5389970143636
  0
TEXT
  8
1
 40
1.44
 41
0.75
  1
-
  7
STANDARD
 73
2
 10
14.0948484929403
 20
3.46100298563639
 11
14.0948484929403
 21
3.46100298563639
  0
TEXT
  8
1
 40
1.44
 41
0.75
  1
-
  7
STANDARD
 73
2
 10
14.0954247411092
 20
-4.54100298563639
 11
14.0954247411092
 21
-4.54100298563639
  0
TEXT
  8
1
 40
1.44
 41
0.75
  1
+
  7
STANDARD
 73
2
 10
14.0148484929403
 20
11.4387890625
 11
14.0148484929403
 21
11.4387890625
  0
TEXT
  8
1
 40
1.44
 41
0.75
  1
3
  7
STANDARD
 73
2
 10
-5.95848484039307
 20
-11.3612109375
 11
-5.95848484039307
 21
-11.3612109375
  0
TEXT
  8
1
 40
1.44
 41
0.75
  1
3
  7
STANDARD
 73
2
 10
-5.98515150705973
 20
4.6387890625
 11
-5.98515150705973
 21
4.6387890625
  0
TEXT
  8
1
 40
1.44
 41
0.75
  1
4
  7
STANDARD
 73
2
 10
-5.87848484039307
 20
-7.3612109375
 11
-5.87848484039307
 21
-7.3612109375
  0
TEXT
  8
1
 40
1.44
 41
0.75
  1
4
  7
STANDARD
 73
2
 10
-5.98515150705973
 20
8.6387890625
 11
-5.98515150705973
 21
8.6387890625
  0
TEXT
  8
1
 40
1.44
 41
0.75
  1
1
  7
STANDARD
 73
2
 10
-5.79848484039307
 20
-3.33899701436361
 11
-5.79848484039307
 21
-3.33899701436361
  0
TEXT
  8
1
 40
1.44
 41
0.75
  1
1
  7
STANDARD
 73
2
 10
-5.90515150705973
 20
12.6610029856364
 11
-5.90515150705973
 21
12.6610029856364
  0
TEXT
  8
1
 40
1.44
 41
0.75
  1
BU
  7
STANDARD
 73
2
 10
-0.298484840393066
 20
-11.3389970143636
 11
-0.298484840393066
 21
-11.3389970143636
  0
TEXT
  8
1
 40
1.44
 41
0.75
  1
BU
  7
STANDARD
 73
2
 10
-0.405151507059732
 20
4.66100298563639
 11
-0.405151507059732
 21
4.66100298563639
  0
TEXT
  8
1
 40
1.44
 41
0.75
  1
BK
  7
STANDARD
 73
2
 10
-0.298484840393066
 20
-7.33899701436361
 11
-0.298484840393066
 21
-7.33899701436361
  0
TEXT
  8
1
 40
1.44
 41
0.75
  1
BK
  7
STANDARD
 73
2
 10
-0.405151507059732
 20
8.66100298563639
 11
-0.405151507059732
 21
8.66100298563639
  0
TEXT
  8
1
 40
1.44
 41
0.75
  1
BN
  7
STANDARD
 73
2
 10
-0.298484840393068
 20
-3.33899701436361
 11
-0.298484840393068
 21
-3.33899701436361
  0
TEXT
  8
1
 40
1.44
 41
0.75
  1
BN
  7
STANDARD
 73
2
 10
-0.405151507059735
 20
12.6610029856364
 11
-0.405151507059735
 21
12.6610029856364
  0
LINE
  8
1
 10
5.72093891143798
 20
6.9587890625
 11
0.220938911437986
 21
6.9587890625
  0
LINE
  8
1
 10
0.220938911437986
 20
2.9587890625
 11
10.570938911438
 21
2.9587890625
  0
LINE
  8
1
 10
11.070938911438
 20
2.9587890625
 11
13.220938911438
 21
2.9587890625
  0
CIRCLE
  8
1
 10
10.820938911438
 20
2.9587890625
 40
0.25
  0
LINE
  8
1
 10
10.820938911438
 20
6.9587890625
 11
10.820938911438
 21
3.2087890625
  0
LINE
  8
1
 10
9.82093891143799
 20
6.9587890625
 11
10.820938911438
 21
6.9587890625
  0
LINE
  8
1
 10
0.220938911437986
 20
10.9587890625
 11
13.220938911438
 21
10.9587890625
  0
LINE
  8
1
 10
0.220938911437986
 20
-5.0412109375
 11
10.470938911438
 21
-5.0412109375
  0
CIRCLE
  8
1
 10
10.720938911438
 20
-5.0412109375
 40
0.25
  0
LINE
  8
1
 10
10.970938911438
 20
-5.0412109375
 11
13.220938911438
 21
-5.0412109375
  0
LINE
  8
1
 10
5.72093891143798
 20
-9.0412109375
 11
0.220938911437986
 21
-9.0412109375
  0
LINE
  8
1
 10
10.720938911438
 20
-9.0412109375
 11
10.720938911438
 21
-5.2912109375
  0
LINE
  8
1
 10
9.72093891143798
 20
-9.0412109375
 11
10.720938911438
 21
-9.0412109375
  0
LINE
  8
1
 10
0.220938911437986
 20
-13.0412109375
 11
13.220938911438
 21
-13.0412109375
  0
LINE
  8
1
 10
-13.279061088562
 20
-13.5412109375
 11
-13.279061088562
 21
-12.5412109375
  0
SOLID
  8
1
 10
-13.279061088562
 20
-12.5412109375
 11
-13.279061088562
 21
-13.5412109375
 12
-15.279061088562
 22
-13.5412109375
 13
-15.279061088562
 23
-13.5412109375
  0
SOLID
  8
1
 10
-15.279061088562
 20
-8.5412109375
 11
-13.279061088562
 21
-8.5412109375
 12
-13.279061088562
 22
-9.5412109375
 13
-13.279061088562
 23
-9.5412109375
  0
SOLID
  8
1
 10
-14.279061088562
 20
-12.5412109375
 11
-13.279061088562
 21
-12.5412109375
 12
-15.279061088562
 22
-13.5412109375
 13
-15.279061088562
 23
-13.5412109375
  0
SOLID
  8
1
 10
-15.279061088562
 20
-8.5412109375
 11
-13.279061088562
 21
-9.5412109375
 12
-14.279061088562
 22
-9.5412109375
 13
-14.279061088562
 23
-9.5412109375
  0
SOLID
  8
1
 10
-14.279061088562
 20
-9.5412109375
 11
-14.279061088562
 21
-12.5412109375
 12
-15.279061088562
 22
-13.5412109375
 13
-15.279061088562
 23
-13.5412109375
  0
SOLID
  8
1
 10
-15.279061088562
 20
-13.5412109375
 11
-15.279061088562
 21
-8.5412109375
 12
-14.279061088562
 22
-9.5412109375
 13
-14.279061088562
 23
-9.5412109375
  0
LINE
  8
1
 10
-13.279061088562
 20
6.4587890625
 11
-13.279061088562
 21
7.4587890625
  0
SOLID
  8
1
 10
-13.279061088562
 20
7.4587890625
 11
-13.279061088562
 21
6.4587890625
 12
-15.279061088562
 22
6.4587890625
 13
-15.279061088562
 23
6.4587890625
  0
SOLID
  8
1
 10
-15.279061088562
 20
11.4587890625
 11
-13.279061088562
 21
11.4587890625
 12
-13.279061088562
 22
10.4587890625
 13
-13.279061088562
 23
10.4587890625
  0
SOLID
  8
1
 10
-14.279061088562
 20
7.4587890625
 11
-13.279061088562
 21
7.4587890625
 12
-15.279061088562
 22
6.4587890625
 13
-15.279061088562
 23
6.4587890625
  0
SOLID
  8
1
 10
-15.279061088562
 20
11.4587890625
 11
-13.279061088562
 21
10.4587890625
 12
-14.279061088562
 22
10.4587890625
 13
-14.279061088562
 23
10.4587890625
  0
SOLID
  8
1
 10
-14.279061088562
 20
10.4587890625
 11
-14.279061088562
 21
7.4587890625
 12
-15.279061088562
 22
6.4587890625
 13
-15.279061088562
 23
6.4587890625
  0
SOLID
  8
1
 10
-15.279061088562
 20
6.4587890625
 11
-15.279061088562
 21
11.4587890625
 12
-14.279061088562
 22
10.4587890625
 13
-14.279061088562
 23
10.4587890625
  0
TEXT
  8
1
 40
1.26
 41
0.75
  1
PNP
  7
STANDARD
 72
1
 73
3
 10
-11.1623944218953
 20
-4.54852897961934
 11
-11.1623944218953
 21
-4.54852897961934
  0
TEXT
  8
1
 40
1.26
 41
0.75
  1
PNP
  7
STANDARD
 72
1
 73
3
 10
-11.279061088562
 20
5.45147102038066
 11
-11.279061088562
 21
5.45147102038066
  0
LINE
  8
1
 10
-6.27906108856201
 20
-13.0412109375
 11
-2.77906108856201
 21
-13.0412109375
  0
LINE
  8
1
 10
-6.27906108856201
 20
-9.0412109375
 11
-2.77906108856201
 21
-9.0412109375
  0
LINE
  8
1
 10
-6.27906108856201
 20
-5.0412109375
 11
-2.77906108856201
 21
-5.0412109375
  0
LINE
  8
1
 10
-0.529061088562014
 20
-5.0412109375
 11
0.220938911437986
 21
-5.0412109375
  0
ARC
  8
1
 10
-1.52906108856201
 20
-5.0412109375
 40
1
 50
270
 51
90
  0
SOLID
  8
1
 10
-2.77906108856201
 20
-4.7912109375
 11
-1.27906108856201
 21
-4.7912109375
 12
-2.77906108856201
 22
-5.2912109375
 13
-1.27906108856201
 23
-5.2912109375
  0
SOLID
  8
1
 10
-1.27906108856201
 20
-5.2912109375
 11
-2.77906108856201
 21
-5.2912109375
 12
-2.77906108856201
 22
-5.2912109375
 13
-2.77906108856201
 23
-4.7912109375
  0
LINE
  8
1
 10
-0.529061088562014
 20
-9.0412109375
 11
0.220938911437986
 21
-9.0412109375
  0
ARC
  8
1
 10
-1.52906108856201
 20
-9.0412109375
 40
1
 50
270
 51
90
  0
SOLID
  8
1
 10
-2.77906108856201
 20
-8.7912109375
 11
-1.27906108856201
 21
-8.7912109375
 12
-2.77906108856201
 22
-9.2912109375
 13
-1.27906108856201
 23
-9.2912109375
  0
SOLID
  8
1
 10
-1.27906108856201
 20
-9.2912109375
 11
-2.77906108856201
 21
-9.2912109375
 12
-2.77906108856201
 22
-9.2912109375
 13
-2.77906108856201
 23
-8.7912109375
  0
LINE
  8
1
 10
-0.529061088562014
 20
-13.0412109375
 11
0.220938911437986
 21
-13.0412109375
  0
ARC
  8
1
 10
-1.52906108856201
 20
-13.0412109375
 40
1
 50
270
 51
90
  0
SOLID
  8
1
 10
-2.77906108856201
 20
-12.7912109375
 11
-1.27906108856201
 21
-12.7912109375
 12
-2.77906108856201
 22
-13.2912109375
 13
-1.27906108856201
 23
-13.2912109375
  0
SOLID
  8
1
 10
-1.27906108856201
 20
-13.2912109375
 11
-2.77906108856201
 21
-13.2912109375
 12
-2.77906108856201
 22
-13.2912109375
 13
-2.77906108856201
 23
-12.7912109375
  0
LINE
  8
1
 10
-6.27906108856201
 20
2.9587890625
 11
-2.77906108856201
 21
2.9587890625
  0
LINE
  8
1
 10
-6.27906108856201
 20
6.9587890625
 11
-2.77906108856201
 21
6.9587890625
  0
LINE
  8
1
 10
-6.27906108856201
 20
10.9587890625
 11
-2.77906108856201
 21
10.9587890625
  0
LINE
  8
1
 10
-0.529061088562014
 20
10.9587890625
 11
0.220938911437986
 21
10.9587890625
  0
ARC
  8
1
 10
-1.52906108856201
 20
10.9587890625
 40
1
 50
270
 51
90
  0
SOLID
  8
1
 10
-2.77906108856201
 20
11.2087890625
 11
-1.27906108856201
 21
11.2087890625
 12
-2.77906108856201
 22
10.7087890625
 13
-1.27906108856201
 23
10.7087890625
  0
SOLID
  8
1
 10
-1.27906108856201
 20
10.7087890625
 11
-2.77906108856201
 21
10.7087890625
 12
-2.77906108856201
 22
10.7087890625
 13
-2.77906108856201
 23
11.2087890625
  0
LINE
  8
1
 10
-0.529061088562014
 20
6.9587890625
 11
0.220938911437986
 21
6.9587890625
  0
ARC
  8
1
 10
-1.52906108856201
 20
6.9587890625
 40
1
 50
270
 51
90
  0
SOLID
  8
1
 10
-2.77906108856201
 20
7.2087890625
 11
-1.27906108856201
 21
7.2087890625
 12
-2.77906108856201
 22
6.7087890625
 13
-1.27906108856201
 23
6.7087890625
  0
SOLID
  8
1
 10
-1.27906108856201
 20
6.7087890625
 11
-2.77906108856201
 21
6.7087890625
 12
-2.77906108856201
 22
6.7087890625
 13
-2.77906108856201
 23
7.2087890625
  0
LINE
  8
1
 10
-0.529061088562014
 20
2.9587890625
 11
0.220938911437986
 21
2.9587890625
  0
ARC
  8
1
 10
-1.52906108856201
 20
2.9587890625
 40
1
 50
270
 51
90
  0
SOLID
  8
1
 10
-2.77906108856201
 20
3.2087890625
 11
-1.27906108856201
 21
3.2087890625
 12
-2.77906108856201
 22
2.7087890625
 13
-1.27906108856201
 23
2.7087890625
  0
SOLID
  8
1
 10
-1.27906108856201
 20
2.7087890625
 11
-2.77906108856201
 21
2.7087890625
 12
-2.77906108856201
 22
2.7087890625
 13
-2.77906108856201
 23
3.2087890625
  0
LINE
  8
1
 10
-8.27906108856201
 20
-13.0412109375
 11
-6.27906108856201
 21
-13.0412109375
  0
LINE
  8
1
 10
-8.27906108856201
 20
-9.0412109375
 11
-6.27906108856201
 21
-9.0412109375
  0
LINE
  8
1
 10
-7.27906108856201
 20
-9.5412109375
 11
-8.27906108856201
 21
-12.0412109375
  0
LINE
  8
1
 10
-8.27906108856201
 20
-10.0412109375
 11
-7.27906108856201
 21
-10.0412109375
  0
LINE
  8
1
 10
-8.27906108856201
 20
-10.0412109375
 11
-8.27906108856201
 21
-9.0412109375
  0
LINE
  8
1
 10
-8.27906108856201
 20
-12.0412109375
 11
-8.27906108856201
 21
-13.0412109375
  0
LINE
  8
1
 10
-8.27906108856201
 20
6.9587890625
 11
-6.27906108856201
 21
6.9587890625
  0
LINE
  8
1
 10
-8.27906108856201
 20
10.9587890625
 11
-6.27906108856201
 21
10.9587890625
  0
LINE
  8
1
 10
-9.27906108856201
 20
10.4587890625
 11
-8.27906108856201
 21
7.9587890625
  0
LINE
  8
1
 10
-8.27906108856201
 20
9.9587890625
 11
-8.27906108856201
 21
10.9587890625
  0
LINE
  8
1
 10
-8.27906108856201
 20
7.9587890625
 11
-8.27906108856201
 21
6.9587890625
  0
POLYLINE
  8
1
 66
1
  0
VERTEX
  8
1
 10
5.72093891143798
 20
-8.5412109375
  0
VERTEX
  8
1
 10
9.72093891143798
 20
-8.5412109375
  0
VERTEX
  8
1
 10
9.72093891143798
 20
-9.5412109375
  0
VERTEX
  8
1
 10
5.72093891143798
 20
-9.5412109375
  0
VERTEX
  8
1
 10
5.72093891143798
 20
-8.5412109375
  0
SEQEND
  8
1
  0
POLYLINE
  8
1
 66
1
  0
VERTEX
  8
1
 10
5.72093891143798
 20
7.4587890625
  0
VERTEX
  8
1
 10
9.72093891143798
 20
7.4587890625
  0
VERTEX
  8
1
 10
9.72093891143798
 20
6.4587890625
  0
VERTEX
  8
1
 10
5.72093891143798
 20
6.4587890625
  0
VERTEX
  8
1
 10
5.72093891143798
 20
7.4587890625
  0
SEQEND
  8
1
  0
LINE
  8
1
  6
DOT
 10
-10.279061088562
 20
-11.0412109375
 11
-7.97906108856201
 21
-11.0412109375
  0
LINE
  8
1
 10
-12.479061088562
 20
-10.2412109375
 11
-12.479061088562
 21
-11.8412109375
  0
LINE
  8
1
 10
-11.079061088562
 20
-10.2412109375
 11
-11.079061088562
 21
-11.8412109375
  0
POLYLINE
  8
1
 66
1
  0
VERTEX
  8
1
 10
-11.779061088562
 20
-9.5412109375
  0
VERTEX
  8
1
 10
-13.279061088562
 20
-11.0412109375
  0
VERTEX
  8
1
 10
-11.779061088562
 20
-12.5412109375
  0
VERTEX
  8
1
 10
-10.279061088562
 20
-11.0412109375
  0
VERTEX
  8
1
 10
-11.779061088562
 20
-9.5412109375
  0
SEQEND
  8
1
  0
LINE
  8
1
  6
DOT
 10
-10.279061088562
 20
8.9587890625
 11
-8.77906108856201
 21
8.9587890625
  0
LINE
  8
1
 10
-12.479061088562
 20
9.7587890625
 11
-12.479061088562
 21
8.1587890625
  0
LINE
  8
1
 10
-11.079061088562
 20
9.7587890625
 11
-11.079061088562
 21
8.1587890625
  0
POLYLINE
  8
1
 66
1
  0
VERTEX
  8
1
 10
-11.779061088562
 20
10.4587890625
  0
VERTEX
  8
1
 10
-13.279061088562
 20
8.9587890625
  0
VERTEX
  8
1
 10
-11.779061088562
 20
7.4587890625
  0
VERTEX
  8
1
 10
-10.279061088562
 20
8.9587890625
  0
VERTEX
  8
1
 10
-11.779061088562
 20
10.4587890625
  0
SEQEND
  8
1
  0
ENDBLK
  8
0
  0
ENDSEC
  0
SECTION
  2
ENTITIES
  0
INSERT
  8
1
  2
B4270_00995300
 10
16.279061088562
 20
14.0412109375
  0
ENDSEC
  0
EOF
