  0
SECTION
  2
HEADER
  9
$LIMMIN
 10
0
 20
0
  9
$LIMMAX
 10
52.5
 20
74.25
  9
$EXTMIN
 10
0
 20
42
  9
$EXTMAX
 10
0
 20
20
  0
ENDSEC
  0
SECTION
  2
TABLES
  0
TABLE
  2
LTYPE
 70
9
  0
LTYPE
  2
CONTINUOUS
 70
64
  3
Solid line
 72
65
 73
0
 40
0
  0
LTYPE
  2
DASHED
 70
64
  3
__ __ __ __ __ __ __ __ __
 72
65
 73
2
 40
0.75
 49
0.5
 49
-0.25
  0
LTYPE
  2
DOT
 70
64
  3
...........................
 72
65
 73
2
 40
0.25
 49
0
 49
-0.25
  0
LTYPE
  2
DASHDOT
 70
64
  3
__ . __ . __ . __ . __ . __ . 
 72
65
 73
4
 40
1
 49
0.5
 49
-0.25
 49
0
 49
-0.25
  0
ENDTAB
  0
TABLE
  2
LAYER
 70
10
  0
LAYER
  2
1
 70
0
 62
7
  6
CONTINUOUS
  0
LAYER
  2
CONNECTIONS
 70
0
 62
-7
  6
CONTINUOUS
  0
ENDTAB
  0
ENDSEC
  0
SECTION
  2
BLOCKS
  0
BLOCK
  8
0
  2
TRICON
 70
0
 10
0
 20
0
  0
POLYLINE
  8
1
 70
1
 66
1
 40
0.5
 41
0.5
  0
VERTEX
  8
1
 10
-0.25
 20
0
 42
1
  0
VERTEX
  8
1
 10
0.25
 20
0
 42
1
  0
SEQEND
  8
1
  0
ENDBLK
  8
0
  0
BLOCK
  8
0
  2
TRICONSMALL
 70
0
 10
0
 20
0
  0
POLYLINE
  8
1
 70
1
 66
1
 40
0.25
 41
0.25
  0
VERTEX
  8
1
 10
-0.125
 20
0
 42
1
  0
VERTEX
  8
1
 10
0.125
 20
0
 42
1
  0
SEQEND
  8
1
  0
ENDBLK
  8
0
  0
BLOCK
  8
0
  2
TRICONCIRCLE
 70
0
 10
0
 20
0
  0
CIRCLE
  8
1
 10
0
 20
0
 40
0.5
  0
ENDBLK
  8
0
  0
BLOCK
  8
0
  2
LCBP0
 70
0
 10
0
 20
0
  0
LINE
  8
1
 10
0
 20
-0.46875
 11
0
 21
0.46875
  0
ENDBLK
  8
0
  0
BLOCK
  8
0
  2
LCBP1
 70
0
 10
0
 20
0
  0
LINE
  8
1
 10
0
 20
-0.625
 11
0
 21
0.625
  0
ENDBLK
  8
0
  0
BLOCK
  8
0
  2
LCBP2
 70
0
 10
0
 20
0
  0
LINE
  8
1
 10
0
 20
-0.9375
 11
0
 21
0.9375
  0
ENDBLK
  8
0
  0
BLOCK
  8
0
  2
LCA1
 70
0
 10
0
 20
0
  0
SOLID
  8
1
 62
7 
 10
0
 20
0
 11
-1.4
 21
-0.275
 12
-1.4
 22
0.275
 13
-1.4
 23
0.275
  0
ENDBLK
  8
0
  0
BLOCK
  8
0
  2
LCA2
 70
0
 10
0
 20
0
  0
SOLID
  8
1
 62
7 
 10
0
 20
0
 11
-1.65
 21
-0.525
 12
-1.65
 22
0.525
 13
-1.65
 23
0.525
  0
ENDBLK
  8
0
  0
BLOCK
  8
0
  2
LCA3
 70
0
 10
0
 20
0
  0
SOLID
  8
1
 62
7 
 10
0
 20
0
 11
-2.15
 21
-1.15
 12
-2.15
 22
1.15
 13
-2.15
 23
1.15
  0
ENDBLK
  8
0
  0
BLOCK
  8
0
  2
LCA1R
 70
0
 10
0
 20
0
  0
SOLID
  8
1
 62
7 
 10
0
 20
0
 11
1.4
 21
-0.275
 12
1.4
 22
0.275
 13
1.4
 23
0.275
  0
ENDBLK
  8
0
  0
BLOCK
  8
0
  2
LCA2R
 70
0
 10
0
 20
0
  0
SOLID
  8
1
 62
7 
 10
0
 20
0
 11
1.65
 21
-0.525
 12
1.65
 22
0.525
 13
1.65
 23
0.525
  0
ENDBLK
  8
0
  0
BLOCK
  8
0
  2
LCA3R
 70
0
 10
0
 20
0
  0
SOLID
  8
1
 62
7 
 10
0
 20
0
 11
2.15
 21
-1.15
 12
2.15
 22
1.15
 13
2.15
 23
1.15
  0
ENDBLK
  8
0
  0
BLOCK
  8
0
  2
B163493_00995286
 70
0
 10
0
 20
0
  0
TEXT
  8
1
 40
2.475
 41
0.75
  1
14
  7
STANDARD
 72
2
 10
-14.8176568349202
 20
-0.106965192159018
 11
-14.8176568349202
 21
-0.106965192159018
  0
TEXT
  8
1
 40
2.475
 41
0.75
  1
14
  7
STANDARD
 72
2
 73
3
 10
-16.0107765197754
 20
-7.24651740392049
 11
-16.0107765197754
 21
-7.24651740392049
  0
LINE
  8
1
 10
-15
 20
-6
 11
-15
 21
-10
  0
TEXT
  8
1
 40
2.475
 41
0.75
  1
1
  7
STANDARD
 72
2
 73
2
 10
9.36522102355959
 20
-9
 11
9.36522102355959
 21
-9
  0
TEXT
  8
1
 40
2.475
 41
0.75
  1
3
  7
STANDARD
 73
3
 10
13.3
 20
-7.11875
 11
13.3
 21
-7.11875
  0
TEXT
  8
1
 40
2.475
 41
0.75
  1
4
  7
STANDARD
 72
2
 10
4.9
 20
3.2375
 11
4.9
 21
3.2375
  0
TEXT
  8
1
 40
2.475
 41
0.75
  1
5
  7
STANDARD
 72
2
 73
3
 10
4.6
 20
-7.11875
 11
4.6
 21
-7.11875
  0
TEXT
  8
1
 40
2.475
 41
0.75
  1
2
  7
STANDARD
 72
2
 10
12.5
 20
3.2375
 11
12.5
 21
3.2375
  0
LINE
  8
1
 10
5
 20
6
 11
5
 21
2
  0
LINE
  8
1
 10
5
 20
-6
 11
5
 21
-10
  0
LINE
  8
1
 10
9
 20
-6
 11
9
 21
-10
  0
LINE
  8
1
 10
13
 20
-6
 11
13
 21
-10
  0
LINE
  8
1
 10
13
 20
6
 11
13
 21
2
  0
ARC
  8
1
 10
16.7238592932174
 20
5.65602820941377
 40
0.894427190999916
 50
47.6225438058942
 51
201.057492628817
  0
ARC
  8
1
 10
16.6633609753731
 20
5.58613525006233
 40
0.824621125123534
 50
196.339530500047
 51
317.303287032121
  0
LINE
  8
1
 10
17.3
 20
5.58333333333333
 11
17.3
 21
5.08333333333333
  0
POLYLINE
  8
1
 66
1
  0
VERTEX
  8
1
 10
16.7
 20
5.58333333333332
  0
VERTEX
  8
1
 10
17.3
 20
5.58333333333332
  0
SEQEND
  8
1
  0
LINE
  8
1
 10
19.65
 20
8.5
 11
20.35
 21
8.5
  0
LINE
  8
1
 10
18.2
 20
8.5
 11
20
 21
9.2
  0
LINE
  8
1
 10
17.5
 20
8.5
 11
18.2
 21
8.5
  0
POLYLINE
  8
1
 66
1
  0
VERTEX
  8
1
 10
15
 20
10
  0
VERTEX
  8
1
 10
21
 20
10
  0
VERTEX
  8
1
 10
21
 20
4
  0
VERTEX
  8
1
 10
15
 20
4
  0
VERTEX
  8
1
 10
15
 20
10
  0
SEQEND
  8
1
  0
LINE
  8
1
 10
15
 20
10
 11
21
 21
4
  0
LINE
  8
1
 10
15
 20
4
 11
15
 21
2
  0
LINE
  8
1
 10
-19
 20
-6
 11
-17
 21
-2
  0
POLYLINE
  8
1
 66
1
  0
VERTEX
  8
1
 10
-21
 20
-2
  0
VERTEX
  8
1
 10
-15
 20
-2
  0
VERTEX
  8
1
 10
-15
 20
-6
  0
VERTEX
  8
1
 10
-21
 20
-6
  0
VERTEX
  8
1
 10
-21
 20
-2
  0
SEQEND
  8
1
  0
POLYLINE
  8
1
 66
1
  0
VERTEX
  8
1
 10
20
 20
-4
  0
VERTEX
  8
1
 10
19.5833333333333
 20
-6
  0
VERTEX
  8
1
 10
18.75
 20
-2
  0
VERTEX
  8
1
 10
17.9166666666667
 20
-6
  0
VERTEX
  8
1
 10
17.0833333333334
 20
-2
  0
VERTEX
  8
1
 10
16.25
 20
-6
  0
VERTEX
  8
1
 10
15.4166666666666
 20
-2
  0
VERTEX
  8
1
 10
15
 20
-4
  0
SEQEND
  8
1
  0
LINE
  8
1
 10
-15
 20
-2
 11
-15
 21
-6
  0
LINE
  8
1
 10
-15
 20
-2
 11
-11.5358983848622
 21
-4
  0
LINE
  8
1
 10
-15
 20
-6
 11
-11.5358983848622
 21
-4
  0
POLYLINE
  8
1
 66
1
  0
VERTEX
  8
1
 10
-15
 20
-2
  0
VERTEX
  8
1
 10
-9
 20
-2
  0
VERTEX
  8
1
 10
-9
 20
-6
  0
VERTEX
  8
1
 10
-15
 20
-6
  0
VERTEX
  8
1
 10
-15
 20
-2
  0
SEQEND
  8
1
  0
LINE
  8
1
 10
-7
 20
-6
 11
-7
 21
-4
  0
INSERT
  8
1
  2
LCBP1
 10
-7
 20
-4
 50
90
  0
POLYLINE
  8
1
 66
1
  0
VERTEX
  8
1
 10
-9
 20
2
  0
VERTEX
  8
1
 10
3
 20
2
  0
VERTEX
  8
1
 10
3
 20
-6
  0
VERTEX
  8
1
 10
-9
 20
-6
  0
VERTEX
  8
1
 10
-9
 20
2
  0
SEQEND
  8
1
  0
LINE
  8
1
 10
1
 20
2
 11
1
 21
-6
  0
INSERT
  8
1
  2
LCA1
 10
1
 20
-6
 50
-90
  0
LINE
  8
1
 10
-3
 20
-6
 11
-7
 21
2
  0
INSERT
  8
1
  2
LCA1
 10
-7
 20
2
 50
116.565051177078
  0
LINE
  8
1
 10
13
 20
-6
 11
13
 21
-4
  0
INSERT
  8
1
  2
LCBP1
 10
13
 20
-4
 50
90
  0
POLYLINE
  8
1
 66
1
  0
VERTEX
  8
1
 10
3
 20
2
  0
VERTEX
  8
1
 10
15
 20
2
  0
VERTEX
  8
1
 10
15
 20
-6
  0
VERTEX
  8
1
 10
3
 20
-6
  0
VERTEX
  8
1
 10
3
 20
2
  0
SEQEND
  8
1
  0
LINE
  8
1
 10
5
 20
2
 11
5
 21
-6
  0
INSERT
  8
1
  2
LCA1
 10
5
 20
-6
 50
-90
  0
LINE
  8
1
 10
9
 20
-6
 11
13
 21
2
  0
INSERT
  8
1
  2
LCA1
 10
13
 20
2
 50
63.434948822922
  0
CIRCLE
  8
CONNECTIONS
 10
-21.0152482350667
 20
-4
 40
0
  0
CIRCLE
  8
CONNECTIONS
 10
-15
 20
-10
 40
0
  0
CIRCLE
  8
CONNECTIONS
 10
5
 20
6
 40
0
  0
CIRCLE
  8
CONNECTIONS
 10
13
 20
6
 40
0
  0
CIRCLE
  8
CONNECTIONS
 10
5
 20
-10
 40
0
  0
CIRCLE
  8
CONNECTIONS
 10
13
 20
-10
 40
0
  0
CIRCLE
  8
CONNECTIONS
 10
9
 20
-10
 40
0
  0
ENDBLK
  8
0
  0
ENDSEC
  0
SECTION
  2
ENTITIES
  0
INSERT
  8
1
  2
B163493_00995286
 10
21
 20
10
  0
ENDSEC
  0
EOF
