  0
SECTION
  2
HEADER
  9
$LIMMIN
 10
0
 20
0
  9
$LIMMAX
 10
52.5
 20
74.25
  9
$EXTMIN
 10
0
 20
57
  9
$EXTMAX
 10
0
 20
41
  0
ENDSEC
  0
SECTION
  2
TABLES
  0
TABLE
  2
LTYPE
 70
9
  0
LTYPE
  2
CONTINUOUS
 70
64
  3
Solid line
 72
65
 73
0
 40
0
  0
LTYPE
  2
DASHED
 70
64
  3
__ __ __ __ __ __ __ __ __
 72
65
 73
2
 40
0.75
 49
0.5
 49
-0.25
  0
LTYPE
  2
DOT
 70
64
  3
...........................
 72
65
 73
2
 40
0.25
 49
0
 49
-0.25
  0
LTYPE
  2
DASHDOT
 70
64
  3
__ . __ . __ . __ . __ . __ . 
 72
65
 73
4
 40
1
 49
0.5
 49
-0.25
 49
0
 49
-0.25
  0
ENDTAB
  0
TABLE
  2
LAYER
 70
10
  0
LAYER
  2
1
 70
0
 62
7
  6
CONTINUOUS
  0
LAYER
  2
CONNECTIONS
 70
0
 62
-7
  6
CONTINUOUS
  0
ENDTAB
  0
ENDSEC
  0
SECTION
  2
BLOCKS
  0
BLOCK
  8
0
  2
TRICON
 70
0
 10
0
 20
0
  0
POLYLINE
  8
1
 70
1
 66
1
 40
0.5
 41
0.5
  0
VERTEX
  8
1
 10
-0.25
 20
0
 42
1
  0
VERTEX
  8
1
 10
0.25
 20
0
 42
1
  0
SEQEND
  8
1
  0
ENDBLK
  8
0
  0
BLOCK
  8
0
  2
TRICONSMALL
 70
0
 10
0
 20
0
  0
POLYLINE
  8
1
 70
1
 66
1
 40
0.25
 41
0.25
  0
VERTEX
  8
1
 10
-0.125
 20
0
 42
1
  0
VERTEX
  8
1
 10
0.125
 20
0
 42
1
  0
SEQEND
  8
1
  0
ENDBLK
  8
0
  0
BLOCK
  8
0
  2
TRICONCIRCLE
 70
0
 10
0
 20
0
  0
CIRCLE
  8
1
 10
0
 20
0
 40
0.5
  0
ENDBLK
  8
0
  0
BLOCK
  8
0
  2
LCBP0
 70
0
 10
0
 20
0
  0
LINE
  8
1
 10
0
 20
-0.46875
 11
0
 21
0.46875
  0
ENDBLK
  8
0
  0
BLOCK
  8
0
  2
LCBP1
 70
0
 10
0
 20
0
  0
LINE
  8
1
 10
0
 20
-0.625
 11
0
 21
0.625
  0
ENDBLK
  8
0
  0
BLOCK
  8
0
  2
LCBP2
 70
0
 10
0
 20
0
  0
LINE
  8
1
 10
0
 20
-0.9375
 11
0
 21
0.9375
  0
ENDBLK
  8
0
  0
BLOCK
  8
0
  2
LCA1
 70
0
 10
0
 20
0
  0
SOLID
  8
1
 62
7 
 10
0
 20
0
 11
-1.4
 21
-0.275
 12
-1.4
 22
0.275
 13
-1.4
 23
0.275
  0
ENDBLK
  8
0
  0
BLOCK
  8
0
  2
LCA2
 70
0
 10
0
 20
0
  0
SOLID
  8
1
 62
7 
 10
0
 20
0
 11
-1.65
 21
-0.525
 12
-1.65
 22
0.525
 13
-1.65
 23
0.525
  0
ENDBLK
  8
0
  0
BLOCK
  8
0
  2
LCA3
 70
0
 10
0
 20
0
  0
SOLID
  8
1
 62
7 
 10
0
 20
0
 11
-2.15
 21
-1.15
 12
-2.15
 22
1.15
 13
-2.15
 23
1.15
  0
ENDBLK
  8
0
  0
BLOCK
  8
0
  2
LCA1R
 70
0
 10
0
 20
0
  0
SOLID
  8
1
 62
7 
 10
0
 20
0
 11
1.4
 21
-0.275
 12
1.4
 22
0.275
 13
1.4
 23
0.275
  0
ENDBLK
  8
0
  0
BLOCK
  8
0
  2
LCA2R
 70
0
 10
0
 20
0
  0
SOLID
  8
1
 62
7 
 10
0
 20
0
 11
1.65
 21
-0.525
 12
1.65
 22
0.525
 13
1.65
 23
0.525
  0
ENDBLK
  8
0
  0
BLOCK
  8
0
  2
LCA3R
 70
0
 10
0
 20
0
  0
SOLID
  8
1
 62
7 
 10
0
 20
0
 11
2.15
 21
-1.15
 12
2.15
 22
1.15
 13
2.15
 23
1.15
  0
ENDBLK
  8
0
  0
BLOCK
  8
0
  2
B13915_00995268
 70
0
 10
0
 20
0
  0
POLYLINE
  8
1
 66
1
  0
VERTEX
  8
1
 10
-24.5
 20
20.5
  0
VERTEX
  8
1
 10
24.5
 20
20.5
  0
VERTEX
  8
1
 10
24.5
 20
-20.5
  0
VERTEX
  8
1
 10
-24.5
 20
-20.5
  0
VERTEX
  8
1
 10
-24.5
 20
20.5
  0
SEQEND
  8
1
  0
TEXT
  8
1
 40
2.475
 41
0.75
  1
2a
  7
STANDARD
 73
2
 10
26.5
 20
-2.5
 11
26.5
 21
-2.5
  0
LINE
  8
1
 10
24.5
 20
-5.5
 11
28.5
 21
-5.5
  0
TEXT
  8
1
 40
2.475
 41
0.75
  1
2
  7
STANDARD
 73
2
 10
26.5
 20
-14
 11
26.5
 21
-14
  0
LINE
  8
1
 10
24.5
 20
-9.5
 11
28.5
 21
-9.5
  0
LINE
  8
1
 10
24.5
 20
16.5
 11
28.5
 21
16.5
  0
LINE
  8
1
 10
-24.5
 20
1.5
 11
-28.5
 21
1.5
  0
TEXT
  8
1
 40
2.475
 41
0.75
  1
3
  7
STANDARD
 72
2
 73
2
 10
-26.5
 20
-13
 11
-26.5
 21
-13
  0
TEXT
  8
1
 40
2.475
 41
0.75
  1
1
  7
STANDARD
 72
2
 73
2
 10
-26.5
 20
-2.4
 11
-26.5
 21
-2.4
  0
LINE
  8
1
 10
-24.5
 20
-5.5
 11
-28.5
 21
-5.5
  0
LINE
  8
1
 10
-24.5
 20
-9.5
 11
-28.5
 21
-9.5
  0
LINE
  8
1
 10
17.5
 20
16.5
 11
24.5
 21
16.5
  0
POLYLINE
  8
1
 70
1
 66
1
 40
0.5
 41
0.5
  0
VERTEX
  8
1
 10
17.25
 20
16.5
 42
1
  0
VERTEX
  8
1
 10
17.75
 20
16.5
 42
1
  0
SEQEND
  8
1
  0
POLYLINE
  8
1
 66
1
  0
VERTEX
  8
1
 10
17.5
 20
7.5
  0
VERTEX
  8
1
 10
17.5
 20
-5.5
  0
VERTEX
  8
1
 10
24.5
 20
-5.5
  0
SEQEND
  8
1
  0
LINE
  8
1
 10
7.5
 20
-9.5
 11
24.5
 21
-9.5
  0
POLYLINE
  8
1
 70
1
 66
1
 40
0.5
 41
0.5
  0
VERTEX
  8
1
 10
11.25
 20
-9.5
 42
1
  0
VERTEX
  8
1
 10
11.75
 20
-9.5
 42
1
  0
SEQEND
  8
1
  0
LINE
  8
1
 10
11.5
 20
-0.5
 11
11.5
 21
-9.5
  0
LINE
  8
1
 10
-24.5
 20
-9.5
 11
-0.5
 21
-9.5
  0
LINE
  8
1
 10
-24.5
 20
-5.5
 11
-0.5
 21
-5.5
  0
POLYLINE
  8
1
 66
1
  0
VERTEX
  8
1
 10
-2.5
 20
5.5
  0
VERTEX
  8
1
 10
1.5
 20
5.5
  0
VERTEX
  8
1
 10
1.5
 20
2.5
  0
SEQEND
  8
1
  0
POLYLINE
  8
1
 66
1
  0
VERTEX
  8
1
 10
-8.5
 20
7.5
  0
VERTEX
  8
1
 10
-10.5
 20
7.5
  0
VERTEX
  8
1
 10
-10.5
 20
12.5
  0
SEQEND
  8
1
  0
POLYLINE
  8
1
 66
1
  0
VERTEX
  8
1
 10
-10.5
 20
12.5
  0
VERTEX
  8
1
 10
11.5
 20
12.5
  0
VERTEX
  8
1
 10
11.5
 20
5.5
  0
SEQEND
  8
1
  0
LINE
  8
1
 10
-12.5
 20
3.5
 11
-8.5
 21
3.5
  0
LINE
  8
1
 10
-24.5
 20
1.5
 11
-18.5
 21
1.5
  0
POLYLINE
  8
1
 66
1
  0
VERTEX
  8
1
 10
-18.5
 20
5.5
  0
VERTEX
  8
1
 10
-20.5
 20
5.5
  0
VERTEX
  8
1
 10
-20.5
 20
16.5
  0
VERTEX
  8
1
 10
17.5
 20
16.5
  0
VERTEX
  8
1
 10
17.5
 20
13.5
  0
SEQEND
  8
1
  0
LINE
  8
1
 10
-2.5
 20
-1.5
 11
6.5
 21
0.5
  0
INSERT
  8
1
  2
LCA1
 10
6.5
 20
0.5
 50
12.5288077091515
  0
LINE
  8
1
 10
-0.5
 20
0.5
 11
3.5
 21
-1.5
  0
POLYLINE
  8
1
 66
1
  0
VERTEX
  8
1
 10
3.5
 20
2.5
  0
VERTEX
  8
1
 10
-0.5
 20
2.5
  0
VERTEX
  8
1
 10
-0.5
 20
-3.5
  0
VERTEX
  8
1
 10
3.5
 20
-3.5
  0
VERTEX
  8
1
 10
3.5
 20
2.5
  0
SEQEND
  8
1
  0
POLYLINE
  8
1
 66
1
  0
VERTEX
  8
1
 10
-18.5
 20
6.5
  0
VERTEX
  8
1
 10
-12.5
 20
6.5
  0
VERTEX
  8
1
 10
-12.5
 20
0.5
  0
VERTEX
  8
1
 10
-18.5
 20
0.5
  0
VERTEX
  8
1
 10
-18.5
 20
6.5
  0
SEQEND
  8
1
  0
POLYLINE
  8
1
 66
1
  0
VERTEX
  8
1
 10
-17.5
 20
5.5
  0
VERTEX
  8
1
 10
-17.5
 20
1.5
  0
VERTEX
  8
1
 10
-13.5
 20
3.5
  0
VERTEX
  8
1
 10
-17.5
 20
5.5
  0
SEQEND
  8
1
  0
POLYLINE
  8
1
 66
1
  0
VERTEX
  8
1
 10
-8.5
 20
8.5
  0
VERTEX
  8
1
 10
-2.5
 20
8.5
  0
VERTEX
  8
1
 10
-2.5
 20
2.5
  0
VERTEX
  8
1
 10
-8.5
 20
2.5
  0
VERTEX
  8
1
 10
-8.5
 20
8.5
  0
SEQEND
  8
1
  0
POLYLINE
  8
1
 66
1
  0
VERTEX
  8
1
 10
-7.5
 20
7.5
  0
VERTEX
  8
1
 10
-7.5
 20
3.5
  0
VERTEX
  8
1
 10
-3.5
 20
5.5
  0
VERTEX
  8
1
 10
-7.5
 20
7.5
  0
SEQEND
  8
1
  0
ARC
  8
1
 10
16.25
 20
9.5
 40
0.5
 50
270
 51
90
  0
LINE
  8
1
 10
16.25
 20
9
 11
15.5
 21
9
  0
LINE
  8
1
 10
15.5
 20
10
 11
16.25
 21
10
  0
LINE
  8
1
 10
15.5
 20
8.15
 11
15.5
 21
10
  0
ARC
  8
1
 10
19
 20
12
 40
1
 50
0
 51
180
  0
LINE
  8
1
 10
20
 20
11
 11
20
 21
12
  0
LINE
  8
1
 10
18
 20
11
 11
18
 21
12
  0
POLYLINE
  8
1
 66
1
  0
VERTEX
  8
1
 10
14.5
 20
13.5
  0
VERTEX
  8
1
 10
20.5
 20
13.5
  0
VERTEX
  8
1
 10
20.5
 20
7.5
  0
VERTEX
  8
1
 10
14.5
 20
7.5
  0
VERTEX
  8
1
 10
14.5
 20
13.5
  0
SEQEND
  8
1
  0
LINE
  8
1
 10
14.5
 20
13.5
 11
20.5
 21
7.5
  0
ARC
  8
1
 10
10.250016598876
 20
1.49998340112403
 40
0.5
 50
270
 51
90
  0
LINE
  8
1
 10
10.250016598876
 20
0.999983401124031
 11
9.50001659887597
 21
0.999983401124031
  0
LINE
  8
1
 10
9.50001659887597
 20
1.99998340112403
 11
10.250016598876
 21
1.99998340112403
  0
LINE
  8
1
 10
9.50001659887597
 20
0.149983401124032
 11
9.50001659887597
 21
1.99998340112403
  0
ARC
  8
1
 10
13.000016598876
 20
3.99998340112403
 40
1
 50
0
 51
180
  0
LINE
  8
1
 10
14.000016598876
 20
2.99998340112403
 11
14.000016598876
 21
3.99998340112403
  0
LINE
  8
1
 10
12.000016598876
 20
2.99998340112403
 11
12.000016598876
 21
3.99998340112403
  0
POLYLINE
  8
1
 66
1
  0
VERTEX
  8
1
 10
8.50001659887597
 20
5.49998340112403
  0
VERTEX
  8
1
 10
14.500016598876
 20
5.49998340112403
  0
VERTEX
  8
1
 10
14.500016598876
 20
-0.500016598875966
  0
VERTEX
  8
1
 10
8.50001659887597
 20
-0.500016598875966
  0
VERTEX
  8
1
 10
8.50001659887597
 20
5.49998340112403
  0
SEQEND
  8
1
  0
LINE
  8
1
 10
8.50001659887597
 20
5.49998340112403
 11
14.500016598876
 21
-0.500016598875969
  0
POLYLINE
  8
1
  6
DOT
 66
1
  0
VERTEX
  8
1
 10
7.5
 20
-9.2728098873137
  0
VERTEX
  8
1
 10
9.5
 20
-11.2728098873137
  0
VERTEX
  8
1
 10
9.5
 20
-15.2728098873137
  0
VERTEX
  8
1
 10
5.5
 20
-15.2728098873137
  0
VERTEX
  8
1
 10
5.5
 20
-11.5
  0
SEQEND
  8
1
  0
POLYLINE
  8
1
 66
1
  0
VERTEX
  8
1
 10
1.5
 20
-11.6666666666667
  0
VERTEX
  8
1
 10
3.5
 20
-12.0833333333333
  0
VERTEX
  8
1
 10
-0.5
 20
-12.9166666666667
  0
VERTEX
  8
1
 10
3.5
 20
-13.75
  0
VERTEX
  8
1
 10
-0.5
 20
-14.5833333333333
  0
VERTEX
  8
1
 10
3.5
 20
-15.4166666666667
  0
VERTEX
  8
1
 10
-0.5
 20
-16.25
  0
VERTEX
  8
1
 10
1.5
 20
-16.6666666666667
  0
SEQEND
  8
1
  0
POLYLINE
  8
1
 66
1
  0
VERTEX
  8
1
 10
-0.5
 20
-11.5
  0
VERTEX
  8
1
 10
7.5
 20
-11.5
  0
VERTEX
  8
1
 10
7.5
 20
-3.5
  0
VERTEX
  8
1
 10
-0.5
 20
-3.5
  0
VERTEX
  8
1
 10
-0.5
 20
-11.5
  0
SEQEND
  8
1
  0
LINE
  8
1
 10
7.5
 20
-9.5
 11
-0.5
 21
-9.5
  0
INSERT
  8
1
  2
LCA1
 10
-0.5
 20
-9.5
 50
-180
  0
INSERT
  8
1
  2
LCA1R
 10
7.5
 20
-9.5
 50
-180
  0
CIRCLE
  8
CONNECTIONS
 10
28.5
 20
-5.5
 40
0
  0
CIRCLE
  8
CONNECTIONS
 10
28.5
 20
-9.5
 40
0
  0
CIRCLE
  8
CONNECTIONS
 10
28.5
 20
16.5
 40
0
  0
CIRCLE
  8
CONNECTIONS
 10
-28.5
 20
1.5
 40
0
  0
CIRCLE
  8
CONNECTIONS
 10
-28.5
 20
-9.5
 40
0
  0
CIRCLE
  8
CONNECTIONS
 10
-28.5
 20
-5.5
 40
0
  0
ENDBLK
  8
0
  0
ENDSEC
  0
SECTION
  2
ENTITIES
  0
INSERT
  8
1
  2
B13915_00995268
 10
28.5
 20
20.5
  0
ENDSEC
  0
EOF
