  0
SECTION
  2
HEADER
  9
$LIMMIN
 10
0
 20
0
  9
$LIMMAX
 10
52.5
 20
74.25
  9
$EXTMIN
 10
0
 20
30
  9
$EXTMAX
 10
0
 20
47.5057832706136
  0
ENDSEC
  0
SECTION
  2
TABLES
  0
TABLE
  2
LTYPE
 70
9
  0
LTYPE
  2
CONTINUOUS
 70
64
  3
Solid line
 72
65
 73
0
 40
0
  0
LTYPE
  2
DASHED
 70
64
  3
__ __ __ __ __ __ __ __ __
 72
65
 73
2
 40
0.75
 49
0.5
 49
-0.25
  0
LTYPE
  2
DOT
 70
64
  3
...........................
 72
65
 73
2
 40
0.25
 49
0
 49
-0.25
  0
LTYPE
  2
DASHDOT
 70
64
  3
__ . __ . __ . __ . __ . __ . 
 72
65
 73
4
 40
1
 49
0.5
 49
-0.25
 49
0
 49
-0.25
  0
ENDTAB
  0
TABLE
  2
LAYER
 70
10
  0
LAYER
  2
1
 70
0
 62
7
  6
CONTINUOUS
  0
LAYER
  2
CONNECTIONS
 70
0
 62
-7
  6
CONTINUOUS
  0
ENDTAB
  0
ENDSEC
  0
SECTION
  2
BLOCKS
  0
BLOCK
  8
0
  2
TRICON
 70
0
 10
0
 20
0
  0
POLYLINE
  8
1
 70
1
 66
1
 40
0.5
 41
0.5
  0
VERTEX
  8
1
 10
-0.25
 20
0
 42
1
  0
VERTEX
  8
1
 10
0.25
 20
0
 42
1
  0
SEQEND
  8
1
  0
ENDBLK
  8
0
  0
BLOCK
  8
0
  2
TRICONSMALL
 70
0
 10
0
 20
0
  0
POLYLINE
  8
1
 70
1
 66
1
 40
0.25
 41
0.25
  0
VERTEX
  8
1
 10
-0.125
 20
0
 42
1
  0
VERTEX
  8
1
 10
0.125
 20
0
 42
1
  0
SEQEND
  8
1
  0
ENDBLK
  8
0
  0
BLOCK
  8
0
  2
TRICONCIRCLE
 70
0
 10
0
 20
0
  0
CIRCLE
  8
1
 10
0
 20
0
 40
0.5
  0
ENDBLK
  8
0
  0
BLOCK
  8
0
  2
LCBP0
 70
0
 10
0
 20
0
  0
LINE
  8
1
 10
0
 20
-0.46875
 11
0
 21
0.46875
  0
ENDBLK
  8
0
  0
BLOCK
  8
0
  2
LCBP1
 70
0
 10
0
 20
0
  0
LINE
  8
1
 10
0
 20
-0.625
 11
0
 21
0.625
  0
ENDBLK
  8
0
  0
BLOCK
  8
0
  2
LCBP2
 70
0
 10
0
 20
0
  0
LINE
  8
1
 10
0
 20
-0.9375
 11
0
 21
0.9375
  0
ENDBLK
  8
0
  0
BLOCK
  8
0
  2
LCA1
 70
0
 10
0
 20
0
  0
SOLID
  8
1
 62
7 
 10
0
 20
0
 11
-1.4
 21
-0.275
 12
-1.4
 22
0.275
 13
-1.4
 23
0.275
  0
ENDBLK
  8
0
  0
BLOCK
  8
0
  2
LCA2
 70
0
 10
0
 20
0
  0
SOLID
  8
1
 62
7 
 10
0
 20
0
 11
-1.65
 21
-0.525
 12
-1.65
 22
0.525
 13
-1.65
 23
0.525
  0
ENDBLK
  8
0
  0
BLOCK
  8
0
  2
LCA3
 70
0
 10
0
 20
0
  0
SOLID
  8
1
 62
7 
 10
0
 20
0
 11
-2.15
 21
-1.15
 12
-2.15
 22
1.15
 13
-2.15
 23
1.15
  0
ENDBLK
  8
0
  0
BLOCK
  8
0
  2
LCA1R
 70
0
 10
0
 20
0
  0
SOLID
  8
1
 62
7 
 10
0
 20
0
 11
1.4
 21
-0.275
 12
1.4
 22
0.275
 13
1.4
 23
0.275
  0
ENDBLK
  8
0
  0
BLOCK
  8
0
  2
LCA2R
 70
0
 10
0
 20
0
  0
SOLID
  8
1
 62
7 
 10
0
 20
0
 11
1.65
 21
-0.525
 12
1.65
 22
0.525
 13
1.65
 23
0.525
  0
ENDBLK
  8
0
  0
BLOCK
  8
0
  2
LCA3R
 70
0
 10
0
 20
0
  0
SOLID
  8
1
 62
7 
 10
0
 20
0
 11
2.15
 21
-1.15
 12
2.15
 22
1.15
 13
2.15
 23
1.15
  0
ENDBLK
  8
0
  0
BLOCK
  8
0
  2
B217996_00995245
 70
0
 10
0
 20
0
  0
LINE
  8
1
 10
-15
 20
-3.2488627506581
 11
0
 21
-13.2488627506581
  0
LINE
  8
1
 10
-15
 20
-3.2488627506581
 11
-15
 21
-23.2488627506581
  0
LINE
  8
1
 10
-15
 20
-23.2488627506581
 11
0
 21
-13.2488627506581
  0
LINE
  8
1
 10
15
 20
-23.2488627506581
 11
0
 21
-13.2488627506581
  0
LINE
  8
1
 10
15
 20
-3.2488627506581
 11
0
 21
-13.2488627506581
  0
LINE
  8
1
 10
15
 20
-23.2488627506581
 11
15
 21
-3.2488627506581
  0
SOLID
  8
1
 10
8.2347978670183
 20
-23.6593938069877
 11
-1.41989560929095
 21
-17.2924974563934
 12
-0.00350182071379853
 22
-15.1446930761345
 13
-0.00350182071379853
 23
-15.1446930761345
  0
SOLID
  8
1
 10
-0.00350182071379853
 20
-15.1446930761345
 11
9.65119165559545
 21
-21.5115894267289
 12
8.2347978670183
 22
-23.6593938069877
 13
8.2347978670183
 23
-23.6593938069877
  0
SOLID
  8
1
 10
-9.63804942142845
 20
-21.6145899470279
 11
-0.0260719294563998
 21
-15.1833875746467
 12
1.40462751839515
 22
-17.3216892629256
 13
1.40462751839515
 23
-17.3216892629256
  0
SOLID
  8
1
 10
1.40462751839515
 20
-17.3216892629256
 11
-8.207349973577
 21
-23.7528916353068
 12
-9.63804942142845
 22
-21.6145899470279
 13
-9.63804942142845
 23
-21.6145899470279
  0
SOLID
  8
1
 10
9.68418000202595
 20
-4.7844295060901
 11
0.0547145448386506
 21
-11.1894174271978
 12
-1.37015317843155
 22
-9.04722532765075
 13
-1.37015317843155
 23
-9.04722532765075
  0
SOLID
  8
1
 10
-1.37015317843155
 20
-9.04722532765075
 11
8.2593122787558
 21
-2.642237406543
 12
9.68418000202595
 22
-4.7844295060901
 13
9.68418000202595
 23
-4.7844295060901
  0
SOLID
  8
1
 10
-8.18302928625255
 20
-2.69093356133615
 11
1.45427992254915
 21
-9.0841132455501
 12
0.032039085672101
 22
-11.2280502833613
 13
0.032039085672101
 23
-11.2280502833613
  0
SOLID
  8
1
 10
0.032039085672101
 20
-11.2280502833613
 11
-9.60527012312955
 21
-4.8348705991473
 12
-8.18302928625255
 22
-2.69093356133615
 13
-8.18302928625255
 23
-2.69093356133615
  0
SOLID
  8
1
 10
-0.75
 20
3.7511372493419
 11
0.75
 21
3.7511372493419
 12
-0.75
 22
-8.2488627506581
 13
0.75
 23
-8.2488627506581
  0
SOLID
  8
1
 10
0.75
 20
-8.2488627506581
 11
-0.75
 21
-8.2488627506581
 12
-0.75
 22
-8.2488627506581
 13
-0.75
 23
3.7511372493419
  0
SOLID
  8
1
 10
-0.727192982456197
 20
15.7528916353069
 11
0.772807017543803
 21
15.7528916353069
 12
-0.727192982456197
 22
3.7528916353069
 13
0.772807017543803
 23
3.7528916353069
  0
SOLID
  8
1
 10
0.772807017543803
 20
3.7528916353069
 11
-0.727192982456197
 21
3.7528916353069
 12
-0.727192982456197
 22
3.7528916353069
 13
-0.727192982456197
 23
15.7528916353069
  0
SOLID
  8
1
 10
-7.97719298245614
 20
18.7528916353068
 11
8.02280701754387
 21
18.7528916353068
 12
-7.97719298245614
 22
15.7528916353068
 13
8.02280701754387
 23
15.7528916353068
  0
SOLID
  8
1
 10
8.02280701754387
 20
15.7528916353068
 11
-7.97719298245614
 21
15.7528916353068
 12
-7.97719298245614
 22
15.7528916353068
 13
-7.97719298245614
 23
18.7528916353068
  0
POLYLINE
  8
1
 66
1
  0
VERTEX
  8
1
 10
-6.97719298245615
 20
4.7528916353069
  0
VERTEX
  8
1
 10
7.0228070175439
 20
6.7528916353069
  0
VERTEX
  8
1
 10
-6.97719298245615
 20
8.7528916353069
  0
VERTEX
  8
1
 10
7.0228070175439
 20
10.7528916353069
  0
VERTEX
  8
1
 10
-6.97719298245615
 20
12.7528916353069
  0
VERTEX
  8
1
 10
7.0228070175439
 20
14.7528916353069
  0
SEQEND
  8
1
  0
POLYLINE
  8
1
 66
1
  0
VERTEX
  8
1
 10
-7.97719298245614
 20
23.7528916353068
  0
VERTEX
  8
1
 10
8.02280701754387
 20
23.7528916353068
  0
VERTEX
  8
1
 10
8.02280701754387
 20
3.75289163530681
  0
VERTEX
  8
1
 10
-7.97719298245614
 20
3.75289163530681
  0
VERTEX
  8
1
 10
-7.97719298245614
 20
23.7528916353068
  0
SEQEND
  8
1
  0
CIRCLE
  8
CONNECTIONS
 10
-15
 20
-13.2488627506581
 40
0
  0
CIRCLE
  8
CONNECTIONS
 10
15
 20
-13.2488627506581
 40
0
  0
CIRCLE
  8
CONNECTIONS
 10
0
 20
23.7511372493419
 40
0
  0
ENDBLK
  8
0
  0
ENDSEC
  0
SECTION
  2
ENTITIES
  0
INSERT
  8
1
  2
B217996_00995245
 10
15
 20
23.7528916353068
  0
ENDSEC
  0
EOF
