  0
SECTION
  2
HEADER
  9
$LIMMIN
 10
0
 20
0
  9
$LIMMAX
 10
52.5
 20
74.25
  9
$EXTMIN
 10
0
 20
55.9890618044389
  9
$EXTMAX
 10
0
 20
22.0477855424236
  0
ENDSEC
  0
SECTION
  2
TABLES
  0
TABLE
  2
LTYPE
 70
9
  0
LTYPE
  2
CONTINUOUS
 70
64
  3
Solid line
 72
65
 73
0
 40
0
  0
LTYPE
  2
DASHED
 70
64
  3
__ __ __ __ __ __ __ __ __
 72
65
 73
2
 40
0.75
 49
0.5
 49
-0.25
  0
LTYPE
  2
DOT
 70
64
  3
...........................
 72
65
 73
2
 40
0.25
 49
0
 49
-0.25
  0
LTYPE
  2
DASHDOT
 70
64
  3
__ . __ . __ . __ . __ . __ . 
 72
65
 73
4
 40
1
 49
0.5
 49
-0.25
 49
0
 49
-0.25
  0
ENDTAB
  0
TABLE
  2
LAYER
 70
10
  0
LAYER
  2
1
 70
0
 62
7
  6
CONTINUOUS
  0
LAYER
  2
CONNECTIONS
 70
0
 62
-7
  6
CONTINUOUS
  0
ENDTAB
  0
ENDSEC
  0
SECTION
  2
BLOCKS
  0
BLOCK
  8
0
  2
TRICON
 70
0
 10
0
 20
0
  0
POLYLINE
  8
1
 70
1
 66
1
 40
0.5
 41
0.5
  0
VERTEX
  8
1
 10
-0.25
 20
0
 42
1
  0
VERTEX
  8
1
 10
0.25
 20
0
 42
1
  0
SEQEND
  8
1
  0
ENDBLK
  8
0
  0
BLOCK
  8
0
  2
TRICONSMALL
 70
0
 10
0
 20
0
  0
POLYLINE
  8
1
 70
1
 66
1
 40
0.25
 41
0.25
  0
VERTEX
  8
1
 10
-0.125
 20
0
 42
1
  0
VERTEX
  8
1
 10
0.125
 20
0
 42
1
  0
SEQEND
  8
1
  0
ENDBLK
  8
0
  0
BLOCK
  8
0
  2
TRICONCIRCLE
 70
0
 10
0
 20
0
  0
CIRCLE
  8
1
 10
0
 20
0
 40
0.5
  0
ENDBLK
  8
0
  0
BLOCK
  8
0
  2
LCBP0
 70
0
 10
0
 20
0
  0
LINE
  8
1
 10
0
 20
-0.46875
 11
0
 21
0.46875
  0
ENDBLK
  8
0
  0
BLOCK
  8
0
  2
LCBP1
 70
0
 10
0
 20
0
  0
LINE
  8
1
 10
0
 20
-0.625
 11
0
 21
0.625
  0
ENDBLK
  8
0
  0
BLOCK
  8
0
  2
LCBP2
 70
0
 10
0
 20
0
  0
LINE
  8
1
 10
0
 20
-0.9375
 11
0
 21
0.9375
  0
ENDBLK
  8
0
  0
BLOCK
  8
0
  2
LCA1
 70
0
 10
0
 20
0
  0
SOLID
  8
1
 62
7 
 10
0
 20
0
 11
-1.4
 21
-0.275
 12
-1.4
 22
0.275
 13
-1.4
 23
0.275
  0
ENDBLK
  8
0
  0
BLOCK
  8
0
  2
LCA2
 70
0
 10
0
 20
0
  0
SOLID
  8
1
 62
7 
 10
0
 20
0
 11
-1.65
 21
-0.525
 12
-1.65
 22
0.525
 13
-1.65
 23
0.525
  0
ENDBLK
  8
0
  0
BLOCK
  8
0
  2
LCA3
 70
0
 10
0
 20
0
  0
SOLID
  8
1
 62
7 
 10
0
 20
0
 11
-2.15
 21
-1.15
 12
-2.15
 22
1.15
 13
-2.15
 23
1.15
  0
ENDBLK
  8
0
  0
BLOCK
  8
0
  2
LCA1R
 70
0
 10
0
 20
0
  0
SOLID
  8
1
 62
7 
 10
0
 20
0
 11
1.4
 21
-0.275
 12
1.4
 22
0.275
 13
1.4
 23
0.275
  0
ENDBLK
  8
0
  0
BLOCK
  8
0
  2
LCA2R
 70
0
 10
0
 20
0
  0
SOLID
  8
1
 62
7 
 10
0
 20
0
 11
1.65
 21
-0.525
 12
1.65
 22
0.525
 13
1.65
 23
0.525
  0
ENDBLK
  8
0
  0
BLOCK
  8
0
  2
LCA3R
 70
0
 10
0
 20
0
  0
SOLID
  8
1
 62
7 
 10
0
 20
0
 11
2.15
 21
-1.15
 12
2.15
 22
1.15
 13
2.15
 23
1.15
  0
ENDBLK
  8
0
  0
BLOCK
  8
0
  2
B148865_00995233
 70
0
 10
0
 20
0
  0
POLYLINE
  8
1
 66
1
  0
VERTEX
  8
1
 10
-27.9945309022194
 20
11.0238927712118
  0
VERTEX
  8
1
 10
27.9945309022194
 20
11.0238927712118
  0
VERTEX
  8
1
 10
27.9945309022194
 20
-6.97610722878819
  0
VERTEX
  8
1
 10
-27.9945309022194
 20
-6.97610722878819
  0
VERTEX
  8
1
 10
-27.9945309022194
 20
11.0238927712118
  0
SEQEND
  8
1
  0
TEXT
  8
1
 40
2.475
 41
0.75
  1
12
  7
STANDARD
 73
2
 10
17.4298445720599
 20
4.28167315820104
 11
17.4298445720599
 21
4.28167315820104
  0
TEXT
  8
1
 40
2.4
 41
0.75
  1
14
  7
STANDARD
 72
2
 73
2
 10
-16.8731259327008
 20
4.97610722878819
 11
-16.8731259327008
 21
4.97610722878819
  0
TEXT
  8
1
 40
2.475
 41
0.75
  1
1
  7
STANDARD
 10
2.59453090221945
 20
-10.7586253672913
  0
TEXT
  8
1
 40
2.475
 41
0.75
  1
3
  7
STANDARD
 10
11.2945309022194
 20
-10.8586253672913
  0
TEXT
  8
1
 40
2.475
 41
0.75
  1
5
  7
STANDARD
 72
2
 10
1.15975192577902
 20
-10.7586253672913
 11
1.15975192577902
 21
-10.7586253672913
  0
TEXT
  8
1
 40
2.475
 41
0.75
  1
2
  7
STANDARD
 72
2
 73
3
 10
9.15975192577902
 20
9.7295898248677
 11
9.15975192577902
 21
9.7295898248677
  0
TEXT
  8
1
 40
2.475
 41
0.75
  1
4
  7
STANDARD
 72
2
 73
3
 10
1.05975192577902
 20
9.7295898248677
 11
1.05975192577902
 21
9.7295898248677
  0
LINE
  8
1
 10
1.99453090221945
 20
10.9761072287882
 11
1.99453090221945
 21
5.07179535286807
  0
LINE
  8
1
 10
10.0060876379426
 20
4.98796457324404
 11
10.0060876379426
 21
11.0001392269177
  0
LINE
  8
1
 10
9.99453090221945
 20
-3.02389277121181
 11
9.99453090221945
 21
-11.0238927712118
  0
LINE
  8
1
 10
5.99453090221945
 20
-3.02389277121181
 11
5.99453090221945
 21
-11.0238927712118
  0
LINE
  8
1
 10
1.99453090221945
 20
-3.02389277121181
 11
1.99453090221945
 21
-11.0238927712118
  0
LINE
  8
1
 10
21.9945309022195
 20
-3.02389277121181
 11
19.9945309022195
 21
0.976107228788194
  0
POLYLINE
  8
1
 66
1
  0
VERTEX
  8
1
 10
23.9945309022195
 20
0.976107228788194
  0
VERTEX
  8
1
 10
17.9945309022195
 20
0.976107228788194
  0
VERTEX
  8
1
 10
17.9945309022195
 20
-3.02389277121181
  0
VERTEX
  8
1
 10
23.9945309022195
 20
-3.02389277121181
  0
VERTEX
  8
1
 10
23.9945309022195
 20
0.976107228788194
  0
SEQEND
  8
1
  0
LINE
  8
1
 10
-22.0054690977805
 20
-3.02389277121181
 11
-20.0054690977805
 21
0.976107228788194
  0
POLYLINE
  8
1
 66
1
  0
VERTEX
  8
1
 10
-24.0054690977805
 20
0.976107228788194
  0
VERTEX
  8
1
 10
-18.0054690977805
 20
0.976107228788194
  0
VERTEX
  8
1
 10
-18.0054690977805
 20
-3.02389277121181
  0
VERTEX
  8
1
 10
-24.0054690977805
 20
-3.02389277121181
  0
VERTEX
  8
1
 10
-24.0054690977805
 20
0.976107228788194
  0
SEQEND
  8
1
  0
POLYLINE
  8
1
 66
1
  0
VERTEX
  8
1
 10
17.9945309022195
 20
0.976107228788194
  0
VERTEX
  8
1
 10
11.9945309022195
 20
0.976107228788194
  0
VERTEX
  8
1
 10
11.9945309022195
 20
-3.02389277121181
  0
VERTEX
  8
1
 10
17.9945309022195
 20
-3.02389277121181
  0
VERTEX
  8
1
 10
17.9945309022195
 20
0.976107228788194
  0
SEQEND
  8
1
  0
LINE
  8
1
 10
17.9945309022195
 20
0.976107228788194
 11
14.5304292870817
 21
-1.02389277121181
  0
LINE
  8
1
 10
17.9945309022195
 20
-3.02389277121181
 11
14.5304292870817
 21
-1.02389277121181
  0
LINE
  8
1
 10
-18.0054690977805
 20
0.976107228788194
 11
-18.0054690977805
 21
-3.02389277121181
  0
POLYLINE
  8
1
 66
1
  0
VERTEX
  8
1
 10
-18.0054690977805
 20
0.976107228788194
  0
VERTEX
  8
1
 10
-12.0054690977805
 20
0.976107228788194
  0
VERTEX
  8
1
 10
-12.0054690977805
 20
-3.02389277121181
  0
VERTEX
  8
1
 10
-18.0054690977805
 20
-3.02389277121181
  0
VERTEX
  8
1
 10
-18.0054690977805
 20
0.976107228788194
  0
SEQEND
  8
1
  0
LINE
  8
1
 10
-18.0054690977805
 20
0.976107228788194
 11
-14.5413674826428
 21
-1.02389277121181
  0
LINE
  8
1
 10
-18.0054690977805
 20
-3.02389277121181
 11
-14.5413674826428
 21
-1.02389277121181
  0
POLYLINE
  8
1
 66
1
  0
VERTEX
  8
1
 10
-12.0054690977805
 20
4.97610722878819
  0
VERTEX
  8
1
 10
-0.00546909778054783
 20
4.97610722878819
  0
VERTEX
  8
1
 10
-0.00546909778054783
 20
-3.02389277121181
  0
VERTEX
  8
1
 10
-12.0054690977805
 20
-3.02389277121181
  0
VERTEX
  8
1
 10
-12.0054690977805
 20
4.97610722878819
  0
SEQEND
  8
1
  0
LINE
  8
1
 10
-10.0054690977805
 20
-3.02389277121181
 11
-10.0054690977805
 21
-1.02389277121181
  0
INSERT
  8
1
  2
LCBP1
 10
-10.0054690977805
 20
-1.02389277121181
 50
90
  0
LINE
  8
1
 10
-2.00546909778055
 20
4.97610722878819
 11
-2.00546909778055
 21
-3.02389277121181
  0
INSERT
  8
1
  2
LCA1
 10
-2.00546909778055
 20
-3.02389277121181
 50
-90
  0
LINE
  8
1
 10
-6.00546909778055
 20
-3.02389277121181
 11
-10.0054690977805
 21
4.97610722878819
  0
INSERT
  8
1
  2
LCA1
 10
-10.0054690977805
 20
4.97610722878819
 50
116.565051177078
  0
LINE
  8
1
 10
9.99453090221945
 20
-3.02389277121181
 11
9.99453090221945
 21
-1.02389277121181
  0
INSERT
  8
1
  2
LCBP1
 10
9.99453090221945
 20
-1.02389277121181
 50
90
  0
POLYLINE
  8
1
 66
1
  0
VERTEX
  8
1
 10
-0.00546909778054783
 20
4.97610722878819
  0
VERTEX
  8
1
 10
11.9945309022195
 20
4.97610722878819
  0
VERTEX
  8
1
 10
11.9945309022195
 20
-3.02389277121181
  0
VERTEX
  8
1
 10
-0.00546909778054783
 20
-3.02389277121181
  0
VERTEX
  8
1
 10
-0.00546909778054783
 20
4.97610722878819
  0
SEQEND
  8
1
  0
LINE
  8
1
 10
1.99453090221945
 20
4.97610722878819
 11
1.99453090221945
 21
-3.02389277121181
  0
INSERT
  8
1
  2
LCA1
 10
1.99453090221945
 20
-3.02389277121181
 50
-90
  0
LINE
  8
1
 10
5.99453090221945
 20
-3.02389277121181
 11
9.99453090221945
 21
4.97610722878819
  0
INSERT
  8
1
  2
LCA1
 10
9.99453090221945
 20
4.97610722878819
 50
63.434948822922
  0
CIRCLE
  8
CONNECTIONS
 10
1.99453090221945
 20
10.9761072287882
 40
0
  0
CIRCLE
  8
CONNECTIONS
 10
10.0060876379426
 20
11.0001392269177
 40
0
  0
CIRCLE
  8
CONNECTIONS
 10
9.99453090221945
 20
-11.0238927712118
 40
0
  0
CIRCLE
  8
CONNECTIONS
 10
1.99453090221945
 20
-11.0238927712118
 40
0
  0
CIRCLE
  8
CONNECTIONS
 10
5.99453090221945
 20
-11.0238927712118
 40
0
  0
CIRCLE
  8
CONNECTIONS
 10
23.9945309022195
 20
-1.02389277121181
 40
0
  0
CIRCLE
  8
CONNECTIONS
 10
-24.0054690977805
 20
-1.02389277121181
 40
0
  0
ENDBLK
  8
0
  0
ENDSEC
  0
SECTION
  2
ENTITIES
  0
INSERT
  8
1
  2
B148865_00995233
 10
27.9945309022194
 20
11.0238927712118
  0
ENDSEC
  0
EOF
