  0
SECTION
  2
HEADER
  9
$LIMMIN
 10
0
 20
0
  9
$LIMMAX
 10
52.5
 20
74.25
  9
$EXTMIN
 10
0
 20
45.4607489903768
  9
$EXTMAX
 10
0
 20
60
  0
ENDSEC
  0
SECTION
  2
TABLES
  0
TABLE
  2
LTYPE
 70
9
  0
LTYPE
  2
CONTINUOUS
 70
64
  3
Solid line
 72
65
 73
0
 40
0
  0
LTYPE
  2
DASHED
 70
64
  3
__ __ __ __ __ __ __ __ __
 72
65
 73
2
 40
0.75
 49
0.5
 49
-0.25
  0
LTYPE
  2
DOT
 70
64
  3
...........................
 72
65
 73
2
 40
0.25
 49
0
 49
-0.25
  0
LTYPE
  2
DASHDOT
 70
64
  3
__ . __ . __ . __ . __ . __ . 
 72
65
 73
4
 40
1
 49
0.5
 49
-0.25
 49
0
 49
-0.25
  0
ENDTAB
  0
TABLE
  2
LAYER
 70
10
  0
LAYER
  2
1
 70
0
 62
7
  6
CONTINUOUS
  0
LAYER
  2
CONNECTIONS
 70
0
 62
-7
  6
CONTINUOUS
  0
ENDTAB
  0
ENDSEC
  0
SECTION
  2
BLOCKS
  0
BLOCK
  8
0
  2
TRICON
 70
0
 10
0
 20
0
  0
POLYLINE
  8
1
 70
1
 66
1
 40
0.5
 41
0.5
  0
VERTEX
  8
1
 10
-0.25
 20
0
 42
1
  0
VERTEX
  8
1
 10
0.25
 20
0
 42
1
  0
SEQEND
  8
1
  0
ENDBLK
  8
0
  0
BLOCK
  8
0
  2
TRICONSMALL
 70
0
 10
0
 20
0
  0
POLYLINE
  8
1
 70
1
 66
1
 40
0.25
 41
0.25
  0
VERTEX
  8
1
 10
-0.125
 20
0
 42
1
  0
VERTEX
  8
1
 10
0.125
 20
0
 42
1
  0
SEQEND
  8
1
  0
ENDBLK
  8
0
  0
BLOCK
  8
0
  2
TRICONCIRCLE
 70
0
 10
0
 20
0
  0
CIRCLE
  8
1
 10
0
 20
0
 40
0.5
  0
ENDBLK
  8
0
  0
BLOCK
  8
0
  2
LCBP0
 70
0
 10
0
 20
0
  0
LINE
  8
1
 10
0
 20
-0.46875
 11
0
 21
0.46875
  0
ENDBLK
  8
0
  0
BLOCK
  8
0
  2
LCBP1
 70
0
 10
0
 20
0
  0
LINE
  8
1
 10
0
 20
-0.625
 11
0
 21
0.625
  0
ENDBLK
  8
0
  0
BLOCK
  8
0
  2
LCBP2
 70
0
 10
0
 20
0
  0
LINE
  8
1
 10
0
 20
-0.9375
 11
0
 21
0.9375
  0
ENDBLK
  8
0
  0
BLOCK
  8
0
  2
LCA1
 70
0
 10
0
 20
0
  0
SOLID
  8
1
 62
7 
 10
0
 20
0
 11
-1.4
 21
-0.275
 12
-1.4
 22
0.275
 13
-1.4
 23
0.275
  0
ENDBLK
  8
0
  0
BLOCK
  8
0
  2
LCA2
 70
0
 10
0
 20
0
  0
SOLID
  8
1
 62
7 
 10
0
 20
0
 11
-1.65
 21
-0.525
 12
-1.65
 22
0.525
 13
-1.65
 23
0.525
  0
ENDBLK
  8
0
  0
BLOCK
  8
0
  2
LCA3
 70
0
 10
0
 20
0
  0
SOLID
  8
1
 62
7 
 10
0
 20
0
 11
-2.15
 21
-1.15
 12
-2.15
 22
1.15
 13
-2.15
 23
1.15
  0
ENDBLK
  8
0
  0
BLOCK
  8
0
  2
LCA1R
 70
0
 10
0
 20
0
  0
SOLID
  8
1
 62
7 
 10
0
 20
0
 11
1.4
 21
-0.275
 12
1.4
 22
0.275
 13
1.4
 23
0.275
  0
ENDBLK
  8
0
  0
BLOCK
  8
0
  2
LCA2R
 70
0
 10
0
 20
0
  0
SOLID
  8
1
 62
7 
 10
0
 20
0
 11
1.65
 21
-0.525
 12
1.65
 22
0.525
 13
1.65
 23
0.525
  0
ENDBLK
  8
0
  0
BLOCK
  8
0
  2
LCA3R
 70
0
 10
0
 20
0
  0
SOLID
  8
1
 62
7 
 10
0
 20
0
 11
2.15
 21
-1.15
 12
2.15
 22
1.15
 13
2.15
 23
1.15
  0
ENDBLK
  8
0
  0
BLOCK
  8
0
  2
B87_00992977
 70
0
 10
0
 20
0
  0
POLYLINE
  8
1
 66
1
  0
VERTEX
  8
1
 10
-12.0000075183526
 20
-1.9999924816475
  0
VERTEX
  8
1
 10
-4.00000751835258
 20
-1.9999924816475
  0
VERTEX
  8
1
 10
-4.00000751835258
 20
-9.99999248164742
  0
VERTEX
  8
1
 10
-12.0000075183526
 20
-9.99999248164742
  0
VERTEX
  8
1
 10
-12.0000075183526
 20
-1.9999924816475
  0
SEQEND
  8
1
  0
LINE
  8
1
 10
-4.00000751835258
 20
-7.99999248164742
 11
-6.00000751835258
 21
-7.99999248164742
  0
INSERT
  8
1
  2
LCBP1
 10
-6.00000751835258
 20
-7.99999248164742
 50
-180
  0
LINE
  8
1
 10
-4.00000751835258
 20
-3.99999248164742
 11
-12.0000075183526
 21
-3.99999248164742
  0
INSERT
  8
1
  2
LCA1
 10
-12.0000075183526
 20
-3.99999248164742
 50
-180
  0
LINE
  8
1
 10
-4.00000751835258
 20
-11.9999924816474
 11
-6.00000751835258
 21
-11.9999924816474
  0
INSERT
  8
1
  2
LCBP1
 10
-6.00000751835258
 20
-11.9999924816474
 50
-180
  0
POLYLINE
  8
1
 66
1
  0
VERTEX
  8
1
 10
-12.0000075183526
 20
-9.99999248164742
  0
VERTEX
  8
1
 10
-4.00000751835258
 20
-9.99999248164742
  0
VERTEX
  8
1
 10
-4.00000751835258
 20
-17.9999924816474
  0
VERTEX
  8
1
 10
-12.0000075183526
 20
-17.9999924816474
  0
VERTEX
  8
1
 10
-12.0000075183526
 20
-9.99999248164742
  0
SEQEND
  8
1
  0
LINE
  8
1
 10
-12.0000075183526
 20
-11.9999924816474
 11
-4.00000751835258
 21
-15.9999924816474
  0
INSERT
  8
1
  2
LCA1
 10
-4.00000751835258
 20
-15.9999924816474
 50
-26.565051177078
  0
POLYLINE
  8
1
 66
1
  0
VERTEX
  8
1
 10
-10.0000075183526
 20
-22.9999924816474
  0
VERTEX
  8
1
 10
-12.0000075183526
 20
-22.5833258149807
  0
VERTEX
  8
1
 10
-8.00000751835258
 20
-21.7499924816474
  0
VERTEX
  8
1
 10
-12.0000075183526
 20
-20.9166591483141
  0
VERTEX
  8
1
 10
-8.00000751835258
 20
-20.0833258149807
  0
VERTEX
  8
1
 10
-12.0000075183526
 20
-19.2499924816474
  0
VERTEX
  8
1
 10
-8.00000751835258
 20
-18.4166591483141
  0
VERTEX
  8
1
 10
-10.0000075183526
 20
-17.9999924816474
  0
SEQEND
  8
1
  0
LINE
  8
1
 10
-10.0000075183526
 20
2.00000751834564
 11
-10.0000075183526
 21
-1.99999248164742
  0
LINE
  8
1
 10
-10
 20
5.4640961113147
 11
-10
 21
8.00000751835258
  0
LINE
  8
1
 10
-8
 20
5.4640961113147
 11
-12
 21
5.4640961113147
  0
LINE
  8
1
 10
-8
 20
5.4640961113147
 11
-10
 21
1.99999449617694
  0
LINE
  8
1
 10
-12
 20
5.4640961113147
 11
-10
 21
1.99999449617694
  0
POLYLINE
  8
1
 66
1
  0
VERTEX
  8
1
 10
9.99991085528812
 20
-22.999981428185
  0
VERTEX
  8
1
 10
7.99991085528812
 20
-22.5833147615183
  0
VERTEX
  8
1
 10
11.9999108552881
 20
-21.749981428185
  0
VERTEX
  8
1
 10
7.99991085528812
 20
-20.9166480948518
  0
VERTEX
  8
1
 10
11.9999108552881
 20
-20.0833147615183
  0
VERTEX
  8
1
 10
7.99991085528812
 20
-19.249981428185
  0
VERTEX
  8
1
 10
11.9999108552881
 20
-18.4166480948518
  0
VERTEX
  8
1
 10
9.99991085528812
 20
-17.999981428185
  0
SEQEND
  8
1
  0
LINE
  8
1
 10
9.99999248164742
 20
1.99999999999306
 11
9.99999248164742
 21
-2
  0
LINE
  8
1
 10
10
 20
5.46408859296211
 11
10
 21
8
  0
LINE
  8
1
 10
12
 20
5.46408859296211
 11
8
 21
5.46408859296211
  0
LINE
  8
1
 10
12
 20
5.46408859296211
 11
10
 21
1.99998697782436
  0
LINE
  8
1
 10
8
 20
5.46408859296211
 11
10
 21
1.99998697782436
  0
POLYLINE
  8
1
 66
1
  0
VERTEX
  8
1
 10
11.9999924816474
 20
-10
  0
VERTEX
  8
1
 10
3.99999248164742
 20
-10
  0
VERTEX
  8
1
 10
3.99999248164742
 20
-18
  0
VERTEX
  8
1
 10
11.9999924816474
 20
-18
  0
VERTEX
  8
1
 10
11.9999924816474
 20
-10
  0
SEQEND
  8
1
  0
LINE
  8
1
 10
3.99999248164742
 20
-16
 11
5.99999248164742
 21
-16
  0
INSERT
  8
1
  2
LCBP1
 10
5.99999248164742
 20
-16
 50
0
  0
LINE
  8
1
 10
3.99999248164742
 20
-12
 11
11.9999924816474
 21
-12
  0
INSERT
  8
1
  2
LCA1
 10
11.9999924816474
 20
-12
 50
0
  0
LINE
  8
1
 10
3.99999248164742
 20
-4
 11
5.99999248164742
 21
-4
  0
INSERT
  8
1
  2
LCBP1
 10
5.99999248164742
 20
-4
 50
0
  0
POLYLINE
  8
1
 66
1
  0
VERTEX
  8
1
 10
11.9999924816474
 20
-2
  0
VERTEX
  8
1
 10
3.99999248164742
 20
-2
  0
VERTEX
  8
1
 10
3.99999248164742
 20
-10
  0
VERTEX
  8
1
 10
11.9999924816474
 20
-10
  0
VERTEX
  8
1
 10
11.9999924816474
 20
-2
  0
SEQEND
  8
1
  0
LINE
  8
1
 10
11.9999924816474
 20
-4
 11
3.99999248164742
 21
-8
  0
INSERT
  8
1
  2
LCA1
 10
3.99999248164742
 20
-8
 50
-153.434948822922
  0
LINE
  8
1
 10
8
 20
24
 11
-8
 21
24
  0
ARC
  8
1
 10
0
 20
14
 40
9
 50
70.5289494206614
 51
109.471403199945
  0
ARC
  8
1
 10
0
 20
34
 40
9
 50
250.52860468454
 51
289.47134129249
  0
LINE
  8
1
 10
-1.5
 20
20.5
 11
1.5
 21
27.5
  0
INSERT
  8
1
  2
LCA1
 10
1.5
 20
27.5
 50
66.8014094863518
  0
LINE
  8
1
 10
-1
 20
17
 11
-4
 21
17
  0
LINE
  8
1
 10
1.5
 20
17
 11
4.5
 21
17
  0
CIRCLE
  8
1
 10
0.5
 20
17
 40
1
  0
POLYLINE
  8
1
 66
1
  0
VERTEX
  8
1
 10
1
 20
19
  0
VERTEX
  8
1
 10
-1
 20
17
  0
VERTEX
  8
1
 10
1
 20
15
  0
SEQEND
  8
1
  0
LINE
  8
1
 10
8
 20
10
 11
-8
 21
10
  0
ARC
  8
1
 10
0
 20
0
 40
9
 50
70.5289494206614
 51
109.471403199945
  0
ARC
  8
1
 10
0
 20
20
 40
9
 50
250.52860468454
 51
289.47134129249
  0
LINE
  8
1
 10
-1.5
 20
6.5
 11
1.5
 21
13.5
  0
INSERT
  8
1
  2
LCA1
 10
1.5
 20
13.5
 50
66.8014094863518
  0
LINE
  8
1
 10
1.5
 20
3
 11
4.5
 21
3
  0
LINE
  8
1
 10
-1
 20
3
 11
-4
 21
3
  0
CIRCLE
  8
1
 10
0
 20
3
 40
1
  0
POLYLINE
  8
1
 66
1
  0
VERTEX
  8
1
 10
-0.5
 20
5
  0
VERTEX
  8
1
 10
1.5
 20
3
  0
VERTEX
  8
1
 10
-0.5
 20
1
  0
SEQEND
  8
1
  0
POLYLINE
  8
1
 70
1
 66
1
 40
0.75
 41
0.75
  0
VERTEX
  8
1
 10
-6.375
 20
24
 42
1
  0
VERTEX
  8
1
 10
-5.625
 20
24
 42
1
  0
SEQEND
  8
1
  0
POLYLINE
  8
1
 70
1
 66
1
 40
0.75
 41
0.75
  0
VERTEX
  8
1
 10
5.625
 20
24
 42
1
  0
VERTEX
  8
1
 10
6.375
 20
24
 42
1
  0
SEQEND
  8
1
  0
POLYLINE
  8
1
 70
1
 66
1
 40
0.75
 41
0.75
  0
VERTEX
  8
1
 10
5.625
 20
10
 42
1
  0
VERTEX
  8
1
 10
6.375
 20
10
 42
1
  0
SEQEND
  8
1
  0
POLYLINE
  8
1
 70
1
 66
1
 40
0.75
 41
0.75
  0
VERTEX
  8
1
 10
-6.375
 20
10
 42
1
  0
VERTEX
  8
1
 10
-5.625
 20
10
 42
1
  0
SEQEND
  8
1
  0
POLYLINE
  8
1
 70
1
 66
1
 40
0.75
 41
0.75
  0
VERTEX
  8
1
 10
-14.375
 20
-12
 42
1
  0
VERTEX
  8
1
 10
-13.625
 20
-12
 42
1
  0
SEQEND
  8
1
  0
POLYLINE
  8
1
 70
1
 66
1
 40
0.75
 41
0.75
  0
VERTEX
  8
1
 10
-2.375
 20
-16
 42
1
  0
VERTEX
  8
1
 10
-1.625
 20
-16
 42
1
  0
SEQEND
  8
1
  0
POLYLINE
  8
1
 70
1
 66
1
 40
0.75
 41
0.75
  0
VERTEX
  8
1
 10
1.625
 20
-12
 42
1
  0
VERTEX
  8
1
 10
2.375
 20
-12
 42
1
  0
SEQEND
  8
1
  0
POLYLINE
  8
1
 70
1
 66
1
 40
0.75
 41
0.75
  0
VERTEX
  8
1
 10
13.625
 20
-12
 42
1
  0
VERTEX
  8
1
 10
14.375
 20
-12
 42
1
  0
SEQEND
  8
1
  0
TEXT
  8
1
 40
2.475
 41
0.75
  1
2
  7
STANDARD
 72
2
 10
-19.2696253458659
 20
-9.80139926274617
 11
-19.2696253458659
 21
-9.80139926274617
  0
TEXT
  8
1
 40
2.475
 41
0.75
  1
4
  7
STANDARD
 10
19.2696253458659
 20
-9.80139926274617
  0
TEXT
  8
1
 40
2.475
 41
0.75
  1
1
  7
STANDARD
 10
2.26962534586589
 20
-29.8013992627462
  0
TEXT
  8
1
 40
2.475
 41
0.75
  1
3
  7
STANDARD
 72
2
 10
-2.26962534586588
 20
-29.8013992627462
 11
-2.26962534586588
 21
-29.8013992627462
  0
LINE
  8
1
 10
-6
 20
24
 11
-6
 21
17
  0
LINE
  8
1
 10
6
 20
17
 11
6
 21
24
  0
LINE
  8
1
 10
4
 20
17
 11
6
 21
17
  0
LINE
  8
1
 10
-6
 20
17
 11
-4
 21
17
  0
LINE
  8
1
 10
-10
 20
8
 11
-10
 21
24
  0
LINE
  8
1
 10
14
 20
-12
 11
14
 21
24
  0
LINE
  8
1
 10
8
 20
24
 11
14
 21
24
  0
LINE
  8
1
 10
-10
 20
24
 11
-8
 21
24
  0
LINE
  8
1
 10
6
 20
3
 11
6
 21
10
  0
LINE
  8
1
 10
4
 20
3
 11
6
 21
3
  0
LINE
  8
1
 10
-6
 20
3
 11
-4
 21
3
  0
LINE
  8
1
 10
-6
 20
10
 11
-6
 21
3
  0
LINE
  8
1
 10
-14
 20
10
 11
-8
 21
10
  0
LINE
  8
1
 10
8
 20
10
 11
10
 21
10
  0
LINE
  8
1
 10
10
 20
10
 11
10
 21
8
  0
LINE
  8
1
 10
-14
 20
-12
 11
-14
 21
10
  0
LINE
  8
1
 10
2
 20
-30
 11
2
 21
-12
  0
LINE
  8
1
 10
11.9999924816474
 20
-12
 11
22
 21
-12
  0
LINE
  8
1
 10
-12.0000075183526
 20
-11.9999924816474
 11
-22
 21
-11.9999924816474
  0
LINE
  8
1
 10
-2
 20
-16
 11
-2
 21
-30
  0
LINE
  8
1
 10
-4.00000751835258
 20
-15.9999924816474
 11
3.99999248164742
 21
-15.9999924816474
  0
LINE
  8
1
 10
-4.00000751835258
 20
-11.9999924816474
 11
3.99999248164742
 21
-11.9999924816474
  0
POLYLINE
  8
1
  6
DASHDOT
 66
1
  0
VERTEX
  8
1
 10
-18
 20
30
  0
VERTEX
  8
1
 10
18
 20
30
  0
VERTEX
  8
1
 10
18
 20
-26
  0
VERTEX
  8
1
 10
-18
 20
-26
  0
VERTEX
  8
1
 10
-18
 20
30
  0
SEQEND
  8
1
  0
CIRCLE
  8
CONNECTIONS
 10
-22
 20
-12
 40
0
  0
CIRCLE
  8
CONNECTIONS
 10
-2
 20
-30
 40
0
  0
CIRCLE
  8
CONNECTIONS
 10
2
 20
-30
 40
0
  0
CIRCLE
  8
CONNECTIONS
 10
22
 20
-12
 40
0
  0
ENDBLK
  8
0
  0
ENDSEC
  0
SECTION
  2
ENTITIES
  0
INSERT
  8
1
  2
B87_00992977
 10
22.7303746541341
 20
30
  0
ENDSEC
  0
EOF
