  0
SECTION
  2
HEADER
  9
$LIMMIN
 10
0
 20
0
  9
$LIMMAX
 10
52.5
 20
74.25
  9
$EXTMIN
 10
0
 20
76
  9
$EXTMAX
 10
0
 20
26
  0
ENDSEC
  0
SECTION
  2
TABLES
  0
TABLE
  2
LTYPE
 70
9
  0
LTYPE
  2
CONTINUOUS
 70
64
  3
Solid line
 72
65
 73
0
 40
0
  0
LTYPE
  2
DASHED
 70
64
  3
__ __ __ __ __ __ __ __ __
 72
65
 73
2
 40
0.75
 49
0.5
 49
-0.25
  0
LTYPE
  2
DOT
 70
64
  3
...........................
 72
65
 73
2
 40
0.25
 49
0
 49
-0.25
  0
LTYPE
  2
DASHDOT
 70
64
  3
__ . __ . __ . __ . __ . __ . 
 72
65
 73
4
 40
1
 49
0.5
 49
-0.25
 49
0
 49
-0.25
  0
ENDTAB
  0
TABLE
  2
LAYER
 70
10
  0
LAYER
  2
1
 70
0
 62
7
  6
CONTINUOUS
  0
LAYER
  2
CONNECTIONS
 70
0
 62
-7
  6
CONTINUOUS
  0
ENDTAB
  0
ENDSEC
  0
SECTION
  2
BLOCKS
  0
BLOCK
  8
0
  2
TRICON
 70
0
 10
0
 20
0
  0
POLYLINE
  8
1
 70
1
 66
1
 40
0.5
 41
0.5
  0
VERTEX
  8
1
 10
-0.25
 20
0
 42
1
  0
VERTEX
  8
1
 10
0.25
 20
0
 42
1
  0
SEQEND
  8
1
  0
ENDBLK
  8
0
  0
BLOCK
  8
0
  2
TRICONSMALL
 70
0
 10
0
 20
0
  0
POLYLINE
  8
1
 70
1
 66
1
 40
0.25
 41
0.25
  0
VERTEX
  8
1
 10
-0.125
 20
0
 42
1
  0
VERTEX
  8
1
 10
0.125
 20
0
 42
1
  0
SEQEND
  8
1
  0
ENDBLK
  8
0
  0
BLOCK
  8
0
  2
TRICONCIRCLE
 70
0
 10
0
 20
0
  0
CIRCLE
  8
1
 10
0
 20
0
 40
0.5
  0
ENDBLK
  8
0
  0
BLOCK
  8
0
  2
LCBP0
 70
0
 10
0
 20
0
  0
LINE
  8
1
 10
0
 20
-0.46875
 11
0
 21
0.46875
  0
ENDBLK
  8
0
  0
BLOCK
  8
0
  2
LCBP1
 70
0
 10
0
 20
0
  0
LINE
  8
1
 10
0
 20
-0.625
 11
0
 21
0.625
  0
ENDBLK
  8
0
  0
BLOCK
  8
0
  2
LCBP2
 70
0
 10
0
 20
0
  0
LINE
  8
1
 10
0
 20
-0.9375
 11
0
 21
0.9375
  0
ENDBLK
  8
0
  0
BLOCK
  8
0
  2
LCA1
 70
0
 10
0
 20
0
  0
SOLID
  8
1
 62
7 
 10
0
 20
0
 11
-1.4
 21
-0.275
 12
-1.4
 22
0.275
 13
-1.4
 23
0.275
  0
ENDBLK
  8
0
  0
BLOCK
  8
0
  2
LCA2
 70
0
 10
0
 20
0
  0
SOLID
  8
1
 62
7 
 10
0
 20
0
 11
-1.65
 21
-0.525
 12
-1.65
 22
0.525
 13
-1.65
 23
0.525
  0
ENDBLK
  8
0
  0
BLOCK
  8
0
  2
LCA3
 70
0
 10
0
 20
0
  0
SOLID
  8
1
 62
7 
 10
0
 20
0
 11
-2.15
 21
-1.15
 12
-2.15
 22
1.15
 13
-2.15
 23
1.15
  0
ENDBLK
  8
0
  0
BLOCK
  8
0
  2
LCA1R
 70
0
 10
0
 20
0
  0
SOLID
  8
1
 62
7 
 10
0
 20
0
 11
1.4
 21
-0.275
 12
1.4
 22
0.275
 13
1.4
 23
0.275
  0
ENDBLK
  8
0
  0
BLOCK
  8
0
  2
LCA2R
 70
0
 10
0
 20
0
  0
SOLID
  8
1
 62
7 
 10
0
 20
0
 11
1.65
 21
-0.525
 12
1.65
 22
0.525
 13
1.65
 23
0.525
  0
ENDBLK
  8
0
  0
BLOCK
  8
0
  2
LCA3R
 70
0
 10
0
 20
0
  0
SOLID
  8
1
 62
7 
 10
0
 20
0
 11
2.15
 21
-1.15
 12
2.15
 22
1.15
 13
2.15
 23
1.15
  0
ENDBLK
  8
0
  0
BLOCK
  8
0
  2
B122204_00992943
 70
0
 10
0
 20
0
  0
POLYLINE
  8
1
 66
1
  0
VERTEX
  8
1
 10
-38
 20
9
  0
VERTEX
  8
1
 10
38
 20
9
  0
VERTEX
  8
1
 10
38
 20
-9
  0
VERTEX
  8
1
 10
-38
 20
-9
  0
VERTEX
  8
1
 10
-38
 20
9
  0
SEQEND
  8
1
  0
POLYLINE
  8
1
  6
DOT
 66
1
  0
VERTEX
  8
1
 10
-13.5
 20
-3
  0
VERTEX
  8
1
 10
-11.5
 20
-5
  0
VERTEX
  8
1
 10
22.5
 20
-5
  0
VERTEX
  8
1
 10
22.5
 20
-3
  0
SEQEND
  8
1
  0
LINE
  8
1
 10
-13.5
 20
9
 11
-13.5
 21
5
  0
LINE
  8
1
 10
22.5
 20
9
 11
22.5
 21
5
  0
LINE
  8
1
 10
26.5
 20
-3
 11
26.5
 21
-9
  0
LINE
  8
1
 10
2.5
 20
-1
 11
2.5
 21
-9
  0
LINE
  8
1
 10
-9.5
 20
-3
 11
-9.5
 21
-9
  0
LINE
  8
1
 10
-13.5
 20
-3
 11
-13.5
 21
-9
  0
LINE
  8
1
 10
-33.5
 20
-1
 11
-33.5
 21
-9
  0
TEXT
  8
1
 40
2.47464580535889
 41
0.75
  1
10(14)
  7
STANDARD
 73
2
 10
-33.5892234802246
 20
-12.5
 11
-33.5892234802246
 21
-12.5
  0
TEXT
  8
1
 40
2.47464580535889
 41
0.75
  1
1
  7
STANDARD
 72
2
 73
2
 10
-13.5
 20
-12.5
 11
-13.5
 21
-12.5
  0
TEXT
  8
1
 40
2.47464580535889
 41
0.75
  1
10(12)
  7
STANDARD
 73
2
 10
2.51077651977538
 20
-12.5
 11
2.51077651977538
 21
-12.5
  0
TEXT
  8
1
 40
2.47464580535889
 41
0.75
  1
2
  7
STANDARD
 72
2
 73
2
 10
21.9
 20
11.8
 11
21.9
 21
11.8
  0
TEXT
  8
1
 40
2.47464580535889
 41
0.75
  1
4
  7
STANDARD
 72
2
 73
2
 10
-14.1
 20
11.8
 11
-14.1
 21
11.8
  0
TEXT
  8
1
 40
2.47464580535889
 41
0.75
  1
5
  7
STANDARD
 73
2
 10
-8.86522102355957
 20
-12.5
 11
-8.86522102355957
 21
-12.5
  0
TEXT
  8
1
 40
2.47464580535889
 41
0.75
  1
3
  7
STANDARD
 72
2
 73
2
 10
26.1
 20
-12.5
 11
26.1
 21
-12.5
  0
LINE
  8
1
 10
26.5
 20
-9
 11
26.5
 21
-13
  0
LINE
  8
1
 10
2.5
 20
-9
 11
2.5
 21
-13
  0
LINE
  8
1
 10
-9.5
 20
-9
 11
-9.5
 21
-13
  0
LINE
  8
1
 10
-13.5
 20
-9
 11
-13.5
 21
-13
  0
LINE
  8
1
 10
-33.5
 20
-9
 11
-33.5
 21
-13
  0
LINE
  8
1
 10
-13.5
 20
13
 11
-13.5
 21
9
  0
LINE
  8
1
 10
22.5
 20
13
 11
22.5
 21
9
  0
POLYLINE
  8
1
 66
1
  0
VERTEX
  8
1
 10
33.5
 20
-1
  0
VERTEX
  8
1
 10
33.0833333333333
 20
-3
  0
VERTEX
  8
1
 10
32.25
 20
1
  0
VERTEX
  8
1
 10
31.4166666666668
 20
-3
  0
VERTEX
  8
1
 10
30.5833333333332
 20
1
  0
VERTEX
  8
1
 10
29.75
 20
-3
  0
VERTEX
  8
1
 10
28.9166666666668
 20
1
  0
VERTEX
  8
1
 10
28.5
 20
-1
  0
SEQEND
  8
1
  0
POLYLINE
  8
1
 66
1
  0
VERTEX
  8
1
 10
-2.5
 20
-1
  0
VERTEX
  8
1
 10
-2.91666666666672
 20
-3
  0
VERTEX
  8
1
 10
-3.75
 20
1
  0
VERTEX
  8
1
 10
-4.58333333333325
 20
-3
  0
VERTEX
  8
1
 10
-5.41666666666675
 20
1
  0
VERTEX
  8
1
 10
-6.25
 20
-3
  0
VERTEX
  8
1
 10
-7.08333333333325
 20
1
  0
VERTEX
  8
1
 10
-7.5
 20
-1
  0
SEQEND
  8
1
  0
LINE
  8
1
 10
8.50000000000694
 20
-1
 11
12.5
 21
-1
  0
LINE
  8
1
 10
5.03591140703788
 20
-0.99999248164742
 11
2.5
 21
-0.99999248164742
  0
LINE
  8
1
 10
5.03591140703788
 20
1.00000751835258
 11
5.03591140703788
 21
-2.99999248164742
  0
LINE
  8
1
 10
5.03591140703788
 20
1.00000751835258
 11
8.50001302217564
 21
-0.99999248164742
  0
LINE
  8
1
 10
5.03591140703788
 20
-2.99999248164742
 11
8.50001302217564
 21
-0.99999248164742
  0
LINE
  8
1
 10
-27.4999999999931
 20
-1
 11
-23.5
 21
-1
  0
LINE
  8
1
 10
-30.9640885929621
 20
-0.99999248164742
 11
-33.5
 21
-0.99999248164742
  0
LINE
  8
1
 10
-30.9640885929621
 20
1.00000751835258
 11
-30.9640885929621
 21
-2.99999248164742
  0
LINE
  8
1
 10
-30.9640885929621
 20
1.00000751835258
 11
-27.4999869778244
 21
-0.99999248164742
  0
LINE
  8
1
 10
-30.9640885929621
 20
-2.99999248164742
 11
-27.4999869778244
 21
-0.99999248164742
  0
LINE
  8
1
 10
14.5
 20
-3
 11
14.5
 21
-1
  0
INSERT
  8
1
  2
LCBP1
 10
14.5
 20
-1
 50
90
  0
POLYLINE
  8
1
 66
1
  0
VERTEX
  8
1
 10
12.5
 20
5
  0
VERTEX
  8
1
 10
20.5
 20
5
  0
VERTEX
  8
1
 10
20.5
 20
-3
  0
VERTEX
  8
1
 10
12.5
 20
-3
  0
VERTEX
  8
1
 10
12.5
 20
5
  0
SEQEND
  8
1
  0
LINE
  8
1
 10
14.5
 20
5
 11
18.5
 21
-3
  0
INSERT
  8
1
  2
LCA1
 10
18.5
 20
-3
 50
-63.434948822922
  0
INSERT
  8
1
  2
LCA1R
 10
14.5
 20
5
 50
-63.434948822922
  0
LINE
  8
1
 10
-21.5
 20
-3
 11
-21.5
 21
-1
  0
INSERT
  8
1
  2
LCBP1
 10
-21.5
 20
-1
 50
90
  0
POLYLINE
  8
1
 66
1
  0
VERTEX
  8
1
 10
-23.5
 20
5
  0
VERTEX
  8
1
 10
-15.5
 20
5
  0
VERTEX
  8
1
 10
-15.5
 20
-3
  0
VERTEX
  8
1
 10
-23.5
 20
-3
  0
VERTEX
  8
1
 10
-23.5
 20
5
  0
SEQEND
  8
1
  0
LINE
  8
1
 10
-21.5
 20
5
 11
-17.5
 21
-3
  0
INSERT
  8
1
  2
LCA1
 10
-17.5
 20
-3
 50
-63.434948822922
  0
INSERT
  8
1
  2
LCA1R
 10
-21.5
 20
5
 50
-63.434948822922
  0
LINE
  8
1
 10
26.5
 20
-3
 11
26.5
 21
-1
  0
INSERT
  8
1
  2
LCBP1
 10
26.5
 20
-1
 50
90
  0
POLYLINE
  8
1
 66
1
  0
VERTEX
  8
1
 10
20.5
 20
5
  0
VERTEX
  8
1
 10
28.5
 20
5
  0
VERTEX
  8
1
 10
28.5
 20
-3
  0
VERTEX
  8
1
 10
20.5
 20
-3
  0
VERTEX
  8
1
 10
20.5
 20
5
  0
SEQEND
  8
1
  0
LINE
  8
1
 10
22.5
 20
-3
 11
22.5
 21
5
  0
INSERT
  8
1
  2
LCA1
 10
22.5
 20
5
 50
90
  0
INSERT
  8
1
  2
LCA1R
 10
22.5
 20
-3
 50
90
  0
LINE
  8
1
 10
-9.5
 20
-3
 11
-9.5
 21
-1
  0
INSERT
  8
1
  2
LCBP1
 10
-9.5
 20
-1
 50
90
  0
POLYLINE
  8
1
 66
1
  0
VERTEX
  8
1
 10
-15.5
 20
5
  0
VERTEX
  8
1
 10
-7.5
 20
5
  0
VERTEX
  8
1
 10
-7.5
 20
-3
  0
VERTEX
  8
1
 10
-15.5
 20
-3
  0
VERTEX
  8
1
 10
-15.5
 20
5
  0
SEQEND
  8
1
  0
LINE
  8
1
 10
-13.5
 20
-3
 11
-13.5
 21
5
  0
INSERT
  8
1
  2
LCA1
 10
-13.5
 20
5
 50
90
  0
INSERT
  8
1
  2
LCA1R
 10
-13.5
 20
-3
 50
90
  0
CIRCLE
  8
CONNECTIONS
 10
-33.5
 20
-13
 40
0
  0
CIRCLE
  8
CONNECTIONS
 10
-13.5
 20
-13
 40
0
  0
CIRCLE
  8
CONNECTIONS
 10
-9.5
 20
-13
 40
0
  0
CIRCLE
  8
CONNECTIONS
 10
2.5
 20
-13
 40
0
  0
CIRCLE
  8
CONNECTIONS
 10
26.5
 20
-13
 40
0
  0
CIRCLE
  8
CONNECTIONS
 10
22.5
 20
13
 40
0
  0
CIRCLE
  8
CONNECTIONS
 10
-13.5
 20
13
 40
0
  0
ENDBLK
  8
0
  0
ENDSEC
  0
SECTION
  2
ENTITIES
  0
INSERT
  8
1
  2
B122204_00992943
 10
38
 20
13
  0
ENDSEC
  0
EOF
