  0
SECTION
  2
HEADER
  9
$LIMMIN
 10
0
 20
0
  9
$LIMMAX
 10
52.5
 20
74.25
  9
$EXTMIN
 10
0
 20
48
  9
$EXTMAX
 10
0
 20
19.2752582150608
  0
ENDSEC
  0
SECTION
  2
TABLES
  0
TABLE
  2
LTYPE
 70
9
  0
LTYPE
  2
CONTINUOUS
 70
64
  3
Solid line
 72
65
 73
0
 40
0
  0
LTYPE
  2
DASHED
 70
64
  3
__ __ __ __ __ __ __ __ __
 72
65
 73
2
 40
0.75
 49
0.5
 49
-0.25
  0
LTYPE
  2
DOT
 70
64
  3
...........................
 72
65
 73
2
 40
0.25
 49
0
 49
-0.25
  0
LTYPE
  2
DASHDOT
 70
64
  3
__ . __ . __ . __ . __ . __ . 
 72
65
 73
4
 40
1
 49
0.5
 49
-0.25
 49
0
 49
-0.25
  0
ENDTAB
  0
TABLE
  2
LAYER
 70
10
  0
LAYER
  2
1
 70
0
 62
7
  6
CONTINUOUS
  0
LAYER
  2
CONNECTIONS
 70
0
 62
-7
  6
CONTINUOUS
  0
ENDTAB
  0
ENDSEC
  0
SECTION
  2
BLOCKS
  0
BLOCK
  8
0
  2
TRICON
 70
0
 10
0
 20
0
  0
POLYLINE
  8
1
 70
1
 66
1
 40
0.5
 41
0.5
  0
VERTEX
  8
1
 10
-0.25
 20
0
 42
1
  0
VERTEX
  8
1
 10
0.25
 20
0
 42
1
  0
SEQEND
  8
1
  0
ENDBLK
  8
0
  0
BLOCK
  8
0
  2
TRICONSMALL
 70
0
 10
0
 20
0
  0
POLYLINE
  8
1
 70
1
 66
1
 40
0.25
 41
0.25
  0
VERTEX
  8
1
 10
-0.125
 20
0
 42
1
  0
VERTEX
  8
1
 10
0.125
 20
0
 42
1
  0
SEQEND
  8
1
  0
ENDBLK
  8
0
  0
BLOCK
  8
0
  2
TRICONCIRCLE
 70
0
 10
0
 20
0
  0
CIRCLE
  8
1
 10
0
 20
0
 40
0.5
  0
ENDBLK
  8
0
  0
BLOCK
  8
0
  2
LCBP0
 70
0
 10
0
 20
0
  0
LINE
  8
1
 10
0
 20
-0.46875
 11
0
 21
0.46875
  0
ENDBLK
  8
0
  0
BLOCK
  8
0
  2
LCBP1
 70
0
 10
0
 20
0
  0
LINE
  8
1
 10
0
 20
-0.625
 11
0
 21
0.625
  0
ENDBLK
  8
0
  0
BLOCK
  8
0
  2
LCBP2
 70
0
 10
0
 20
0
  0
LINE
  8
1
 10
0
 20
-0.9375
 11
0
 21
0.9375
  0
ENDBLK
  8
0
  0
BLOCK
  8
0
  2
LCA1
 70
0
 10
0
 20
0
  0
SOLID
  8
1
 62
7 
 10
0
 20
0
 11
-1.4
 21
-0.275
 12
-1.4
 22
0.275
 13
-1.4
 23
0.275
  0
ENDBLK
  8
0
  0
BLOCK
  8
0
  2
LCA2
 70
0
 10
0
 20
0
  0
SOLID
  8
1
 62
7 
 10
0
 20
0
 11
-1.65
 21
-0.525
 12
-1.65
 22
0.525
 13
-1.65
 23
0.525
  0
ENDBLK
  8
0
  0
BLOCK
  8
0
  2
LCA3
 70
0
 10
0
 20
0
  0
SOLID
  8
1
 62
7 
 10
0
 20
0
 11
-2.15
 21
-1.15
 12
-2.15
 22
1.15
 13
-2.15
 23
1.15
  0
ENDBLK
  8
0
  0
BLOCK
  8
0
  2
LCA1R
 70
0
 10
0
 20
0
  0
SOLID
  8
1
 62
7 
 10
0
 20
0
 11
1.4
 21
-0.275
 12
1.4
 22
0.275
 13
1.4
 23
0.275
  0
ENDBLK
  8
0
  0
BLOCK
  8
0
  2
LCA2R
 70
0
 10
0
 20
0
  0
SOLID
  8
1
 62
7 
 10
0
 20
0
 11
1.65
 21
-0.525
 12
1.65
 22
0.525
 13
1.65
 23
0.525
  0
ENDBLK
  8
0
  0
BLOCK
  8
0
  2
LCA3R
 70
0
 10
0
 20
0
  0
SOLID
  8
1
 62
7 
 10
0
 20
0
 11
2.15
 21
-1.15
 12
2.15
 22
1.15
 13
2.15
 23
1.15
  0
ENDBLK
  8
0
  0
BLOCK
  8
0
  2
B152132_00992941
 70
0
 10
0
 20
0
  0
TEXT
  8
1
 40
2.475
 41
0.75
  1
12
  7
STANDARD
 73
2
 10
17.4353136698405
 20
6.61356593360057
 11
17.4353136698405
 21
6.61356593360057
  0
TEXT
  8
1
 40
2.4
 41
0.75
  1
14
  7
STANDARD
 72
2
 73
2
 10
-16.8676568349202
 20
7.30800000418772
 11
-16.8676568349202
 21
7.30800000418772
  0
TEXT
  8
1
 40
2.4
 41
0.75
  1
(14)
  7
STANDARD
 72
2
 10
-18.2107765197754
 20
-7.86423259189178
 11
-18.2107765197754
 21
-7.86423259189178
  0
LINE
  8
1
 10
-18
 20
-3.69199999581228
 11
-18
 21
-7.69199999581228
  0
TEXT
  8
1
 40
2.475
 41
0.75
  1
1
  7
STANDARD
 72
2
 73
3
 10
6.38485681136638
 20
-6.58414667039663
 11
6.38485681136638
 21
-6.58414667039663
  0
TEXT
  8
1
 40
2.475
 41
0.75
  1
5
  7
STANDARD
 72
2
 73
3
 10
1.78485681136638
 20
-6.58414667039663
 11
1.78485681136638
 21
-6.58414667039663
  0
TEXT
  8
1
 40
2.475
 41
0.75
  1
3
  7
STANDARD
 73
3
 10
10.0196357878068
 20
-6.68414667039663
 11
10.0196357878068
 21
-6.68414667039663
  0
LINE
  8
1
 10
2.01963578780681
 20
-5.63762926647613
 11
2.01963578780681
 21
-9.63762926647613
  0
LINE
  8
1
 10
6.01963578780681
 20
-5.63762926647613
 11
6.01963578780681
 21
-9.63762926647613
  0
LINE
  8
1
 10
10.0196357878068
 20
-5.63762926647613
 11
10.0196357878068
 21
-9.63762926647613
  0
TEXT
  8
1
 40
2.475
 41
0.75
  1
2
  7
STANDARD
 72
2
 10
9.68485681136638
 20
5.62763813744435
 11
9.68485681136638
 21
5.62763813744435
  0
TEXT
  8
1
 40
2.475
 41
0.75
  1
4
  7
STANDARD
 72
2
 10
1.9640340108864
 20
5.59987073352386
 11
1.9640340108864
 21
5.59987073352386
  0
LINE
  8
1
 10
10.0196357878068
 20
4.36237073352387
 11
10.0196357878068
 21
8.36237073352386
  0
LINE
  8
1
 10
2.01963578780681
 20
8.36237073352386
 11
2.01963578780681
 21
4.36237073352387
  0
LINE
  8
1
 10
22
 20
3.80800000418772
 11
18
 21
3.80800000418772
  0
LINE
  8
1
 10
22
 20
4.30800000418772
 11
22
 21
1.30800000418772
  0
LINE
  8
1
 10
22
 20
1.80800000418772
 11
18
 21
1.80800000418772
  0
LINE
  8
1
 10
18
 20
0.308000004187723
 11
18
 21
4.30800000418772
  0
LINE
  8
1
 10
-22
 20
3.80800000418772
 11
-18
 21
3.80800000418772
  0
LINE
  8
1
 10
-22
 20
4.30800000418772
 11
-22
 21
1.30800000418772
  0
LINE
  8
1
 10
-22
 20
1.80800000418772
 11
-18
 21
1.80800000418772
  0
LINE
  8
1
 10
-18
 20
0.308000004187723
 11
-18
 21
4.30800000418772
  0
LINE
  8
1
 10
22
 20
-3.69199999581228
 11
20
 21
0.308000004187723
  0
POLYLINE
  8
1
 66
1
  0
VERTEX
  8
1
 10
24
 20
0.308000004187722
  0
VERTEX
  8
1
 10
18
 20
0.308000004187722
  0
VERTEX
  8
1
 10
18
 20
-3.69199999581228
  0
VERTEX
  8
1
 10
24
 20
-3.69199999581228
  0
VERTEX
  8
1
 10
24
 20
0.308000004187722
  0
SEQEND
  8
1
  0
LINE
  8
1
 10
-22
 20
-3.69199999581228
 11
-20
 21
0.308000004187723
  0
POLYLINE
  8
1
 66
1
  0
VERTEX
  8
1
 10
-24
 20
0.308000004187722
  0
VERTEX
  8
1
 10
-18
 20
0.308000004187722
  0
VERTEX
  8
1
 10
-18
 20
-3.69199999581228
  0
VERTEX
  8
1
 10
-24
 20
-3.69199999581228
  0
VERTEX
  8
1
 10
-24
 20
0.308000004187722
  0
SEQEND
  8
1
  0
LINE
  8
1
 10
-14
 20
-3.69199999581228
 11
-14
 21
-7.69199999581228
  0
LINE
  8
1
 10
-18
 20
-3.69199999581228
 11
-18
 21
-7.69199999581228
  0
LINE
  8
1
 10
2
 20
-3.69199999581228
 11
2
 21
-7.69199999581228
  0
LINE
  8
1
 10
6
 20
-3.69199999581228
 11
6
 21
-7.69199999581228
  0
LINE
  8
1
 10
10
 20
-3.69199999581228
 11
10
 21
-7.69199999581228
  0
POLYLINE
  8
1
  6
DOT
 66
1
  0
VERTEX
  8
1
 10
18
 20
-3.69199999581228
  0
VERTEX
  8
1
 10
18
 20
-5.69199999581228
  0
VERTEX
  8
1
 10
-16
 20
-5.69199999581228
  0
VERTEX
  8
1
 10
-18
 20
-3.69199999581228
  0
SEQEND
  8
1
  0
POLYLINE
  8
1
 66
1
  0
VERTEX
  8
1
 10
18
 20
0.308000004187722
  0
VERTEX
  8
1
 10
12
 20
0.308000004187722
  0
VERTEX
  8
1
 10
12
 20
-3.69199999581228
  0
VERTEX
  8
1
 10
18
 20
-3.69199999581228
  0
VERTEX
  8
1
 10
18
 20
0.308000004187722
  0
SEQEND
  8
1
  0
LINE
  8
1
 10
18
 20
0.308000004187723
 11
14.5358983848622
 21
-1.69199999581228
  0
LINE
  8
1
 10
18
 20
-3.69199999581228
 11
14.5358983848622
 21
-1.69199999581228
  0
LINE
  8
1
 10
-18
 20
0.308000004187723
 11
-18
 21
-3.69199999581228
  0
POLYLINE
  8
1
 66
1
  0
VERTEX
  8
1
 10
-18
 20
0.308000004187722
  0
VERTEX
  8
1
 10
-12
 20
0.308000004187722
  0
VERTEX
  8
1
 10
-12
 20
-3.69199999581228
  0
VERTEX
  8
1
 10
-18
 20
-3.69199999581228
  0
VERTEX
  8
1
 10
-18
 20
0.308000004187722
  0
SEQEND
  8
1
  0
LINE
  8
1
 10
-18
 20
0.308000004187723
 11
-14.5358983848622
 21
-1.69199999581228
  0
LINE
  8
1
 10
-18
 20
-3.69199999581228
 11
-14.5358983848622
 21
-1.69199999581228
  0
POLYLINE
  8
1
 66
1
  0
VERTEX
  8
1
 10
-12
 20
4.30800000418772
  0
VERTEX
  8
1
 10
0
 20
4.30800000418772
  0
VERTEX
  8
1
 10
0
 20
-3.69199999581228
  0
VERTEX
  8
1
 10
-12
 20
-3.69199999581228
  0
VERTEX
  8
1
 10
-12
 20
4.30800000418772
  0
SEQEND
  8
1
  0
LINE
  8
1
 10
-10
 20
-3.69199999581228
 11
-10
 21
-1.69199999581228
  0
INSERT
  8
1
  2
LCBP1
 10
-10
 20
-1.69199999581228
 50
90
  0
LINE
  8
1
 10
-10
 20
4.30800000418772
 11
-6
 21
-3.69199999581228
  0
INSERT
  8
1
  2
LCA1
 10
-6
 20
-3.69199999581228
 50
-63.434948822922
  0
INSERT
  8
1
  2
LCA1R
 10
-10
 20
4.30800000418772
 50
-63.434948822922
  0
LINE
  8
1
 10
-2
 20
-3.69199999581228
 11
-2
 21
4.30800000418772
  0
INSERT
  8
1
  2
LCA1
 10
-2
 20
4.30800000418772
 50
90
  0
INSERT
  8
1
  2
LCA1R
 10
-2
 20
-3.69199999581228
 50
90
  0
POLYLINE
  8
1
 66
1
  0
VERTEX
  8
1
 10
0
 20
4.30800000418772
  0
VERTEX
  8
1
 10
12
 20
4.30800000418772
  0
VERTEX
  8
1
 10
12
 20
-3.69199999581228
  0
VERTEX
  8
1
 10
0
 20
-3.69199999581228
  0
VERTEX
  8
1
 10
0
 20
4.30800000418772
  0
SEQEND
  8
1
  0
LINE
  8
1
 10
10
 20
-3.69199999581228
 11
10
 21
-1.69199999581228
  0
INSERT
  8
1
  2
LCBP1
 10
10
 20
-1.69199999581228
 50
90
  0
LINE
  8
1
 10
2
 20
-3.69199999581228
 11
2
 21
4.30800000418772
  0
INSERT
  8
1
  2
LCA1
 10
2
 20
4.30800000418772
 50
90
  0
INSERT
  8
1
  2
LCA1R
 10
2
 20
-3.69199999581228
 50
90
  0
LINE
  8
1
 10
6
 20
-3.69199999581228
 11
10
 21
4.30800000418772
  0
INSERT
  8
1
  2
LCA1
 10
10
 20
4.30800000418772
 50
63.434948822922
  0
INSERT
  8
1
  2
LCA1R
 10
6
 20
-3.69199999581228
 50
63.434948822922
  0
CIRCLE
  8
CONNECTIONS
 10
-18
 20
-7.69199999581228
 40
0
  0
CIRCLE
  8
CONNECTIONS
 10
2.01963578780681
 20
8.36237073352386
 40
0
  0
CIRCLE
  8
CONNECTIONS
 10
10.0196357878068
 20
8.36237073352386
 40
0
  0
CIRCLE
  8
CONNECTIONS
 10
10.0196357878068
 20
-9.63762926647613
 40
0
  0
CIRCLE
  8
CONNECTIONS
 10
6.01963578780681
 20
-9.63762926647613
 40
0
  0
CIRCLE
  8
CONNECTIONS
 10
2.01963578780681
 20
-9.63762926647613
 40
0
  0
CIRCLE
  8
CONNECTIONS
 10
24
 20
-1.79199999581227
 40
0
  0
CIRCLE
  8
CONNECTIONS
 10
-24.0152482350667
 20
-1.69199999581228
 40
0
  0
ENDBLK
  8
0
  0
ENDSEC
  0
SECTION
  2
ENTITIES
  0
INSERT
  8
1
  2
B152132_00992941
 10
24
 20
9.63762926647614
  0
ENDSEC
  0
EOF
