  0
SECTION
  2
HEADER
  9
$LIMMIN
 10
0
 20
0
  9
$LIMMAX
 10
52.5
 20
74.25
  9
$EXTMIN
 10
0
 20
65.5540742238363
  9
$EXTMAX
 10
0
 20
17.0150903741068
  0
ENDSEC
  0
SECTION
  2
TABLES
  0
TABLE
  2
LTYPE
 70
9
  0
LTYPE
  2
CONTINUOUS
 70
64
  3
Solid line
 72
65
 73
0
 40
0
  0
LTYPE
  2
DASHED
 70
64
  3
__ __ __ __ __ __ __ __ __
 72
65
 73
2
 40
0.75
 49
0.5
 49
-0.25
  0
LTYPE
  2
DOT
 70
64
  3
...........................
 72
65
 73
2
 40
0.25
 49
0
 49
-0.25
  0
LTYPE
  2
DASHDOT
 70
64
  3
__ . __ . __ . __ . __ . __ . 
 72
65
 73
4
 40
1
 49
0.5
 49
-0.25
 49
0
 49
-0.25
  0
ENDTAB
  0
TABLE
  2
LAYER
 70
10
  0
LAYER
  2
1
 70
0
 62
7
  6
CONTINUOUS
  0
LAYER
  2
CONNECTIONS
 70
0
 62
-7
  6
CONTINUOUS
  0
ENDTAB
  0
ENDSEC
  0
SECTION
  2
BLOCKS
  0
BLOCK
  8
0
  2
TRICON
 70
0
 10
0
 20
0
  0
POLYLINE
  8
1
 70
1
 66
1
 40
0.5
 41
0.5
  0
VERTEX
  8
1
 10
-0.25
 20
0
 42
1
  0
VERTEX
  8
1
 10
0.25
 20
0
 42
1
  0
SEQEND
  8
1
  0
ENDBLK
  8
0
  0
BLOCK
  8
0
  2
TRICONSMALL
 70
0
 10
0
 20
0
  0
POLYLINE
  8
1
 70
1
 66
1
 40
0.25
 41
0.25
  0
VERTEX
  8
1
 10
-0.125
 20
0
 42
1
  0
VERTEX
  8
1
 10
0.125
 20
0
 42
1
  0
SEQEND
  8
1
  0
ENDBLK
  8
0
  0
BLOCK
  8
0
  2
TRICONCIRCLE
 70
0
 10
0
 20
0
  0
CIRCLE
  8
1
 10
0
 20
0
 40
0.5
  0
ENDBLK
  8
0
  0
BLOCK
  8
0
  2
LCBP0
 70
0
 10
0
 20
0
  0
LINE
  8
1
 10
0
 20
-0.46875
 11
0
 21
0.46875
  0
ENDBLK
  8
0
  0
BLOCK
  8
0
  2
LCBP1
 70
0
 10
0
 20
0
  0
LINE
  8
1
 10
0
 20
-0.625
 11
0
 21
0.625
  0
ENDBLK
  8
0
  0
BLOCK
  8
0
  2
LCBP2
 70
0
 10
0
 20
0
  0
LINE
  8
1
 10
0
 20
-0.9375
 11
0
 21
0.9375
  0
ENDBLK
  8
0
  0
BLOCK
  8
0
  2
LCA1
 70
0
 10
0
 20
0
  0
SOLID
  8
1
 62
7 
 10
0
 20
0
 11
-1.4
 21
-0.275
 12
-1.4
 22
0.275
 13
-1.4
 23
0.275
  0
ENDBLK
  8
0
  0
BLOCK
  8
0
  2
LCA2
 70
0
 10
0
 20
0
  0
SOLID
  8
1
 62
7 
 10
0
 20
0
 11
-1.65
 21
-0.525
 12
-1.65
 22
0.525
 13
-1.65
 23
0.525
  0
ENDBLK
  8
0
  0
BLOCK
  8
0
  2
LCA3
 70
0
 10
0
 20
0
  0
SOLID
  8
1
 62
7 
 10
0
 20
0
 11
-2.15
 21
-1.15
 12
-2.15
 22
1.15
 13
-2.15
 23
1.15
  0
ENDBLK
  8
0
  0
BLOCK
  8
0
  2
LCA1R
 70
0
 10
0
 20
0
  0
SOLID
  8
1
 62
7 
 10
0
 20
0
 11
1.4
 21
-0.275
 12
1.4
 22
0.275
 13
1.4
 23
0.275
  0
ENDBLK
  8
0
  0
BLOCK
  8
0
  2
LCA2R
 70
0
 10
0
 20
0
  0
SOLID
  8
1
 62
7 
 10
0
 20
0
 11
1.65
 21
-0.525
 12
1.65
 22
0.525
 13
1.65
 23
0.525
  0
ENDBLK
  8
0
  0
BLOCK
  8
0
  2
LCA3R
 70
0
 10
0
 20
0
  0
SOLID
  8
1
 62
7 
 10
0
 20
0
 11
2.15
 21
-1.15
 12
2.15
 22
1.15
 13
2.15
 23
1.15
  0
ENDBLK
  8
0
  0
BLOCK
  8
0
  2
B201833_00992924
 70
0
 10
0
 20
0
  0
TEXT
  8
1
 40
2.4
 41
0.75
  1
12(14)
  7
STANDARD
 72
2
 10
-21.4845510482788
 20
-8.56307872332862
 11
-21.4845510482788
 21
-8.56307872332862
  0
LINE
  8
1
 10
-21.181702041626
 20
-4.46307935911149
 11
-21.181702041626
 21
-8.46307935911149
  0
TEXT
  8
1
 40
2.4
 41
0.75
  1
12
  7
STANDARD
 73
3
 10
26.3608379654214
 20
6.9247428501127
 11
26.3608379654214
 21
6.9247428501127
  0
TEXT
  8
1
 40
2.4
 41
0.75
  1
12(14)
  7
STANDARD
 72
2
 73
3
 10
-20.8906197230021
 20
6.95703088727878
 11
-20.8906197230021
 21
6.95703088727878
  0
TEXT
  8
1
 40
2.4
 41
0.75
  1
1
  7
STANDARD
 72
2
 10
3.35964762369791
 20
-8.59441340406283
 11
3.35964762369791
 21
-8.59441340406283
  0
TEXT
  8
1
 40
2.4
 41
0.75
  1
3
  7
STANDARD
 10
7.37703711191813
 20
-8.60754518705339
  0
TEXT
  8
1
 40
2.4
 41
0.75
  1
5
  7
STANDARD
 72
2
 10
-1.4577418645223
 20
-8.50754518705338
 11
-1.4577418645223
 21
-8.50754518705338
  0
TEXT
  8
1
 40
2.4
 41
0.75
  1
2
  7
STANDARD
 72
2
 10
6.64225877126058
 20
4.69245481294661
 11
6.64225877126058
 21
4.69245481294661
  0
TEXT
  8
1
 40
2.4
 41
0.75
  1
4
  7
STANDARD
 72
2
 10
-1.55774122873942
 20
4.69245481294661
 11
-1.55774122873942
 21
4.69245481294661
  0
LINE
  8
1
 10
-1.22296288808187
 20
-4.50754518705339
 11
-1.22296288808187
 21
-8.50754518705339
  0
LINE
  8
1
 10
2.77703711191813
 20
-4.50754518705339
 11
2.77703711191813
 21
-8.50754518705339
  0
LINE
  8
1
 10
-1.22296288808187
 20
7.49245481294661
 11
-1.22296288808187
 21
3.49245481294661
  0
LINE
  8
1
 10
6.77703711191813
 20
7.49245481294661
 11
6.77703711191813
 21
3.49245481294661
  0
LINE
  8
1
 10
6.77703711191813
 20
-4.50754518705339
 11
6.77703711191813
 21
-8.50754518705339
  0
LINE
  8
1
 10
20.7770371119181
 20
7.49245481294661
 11
20.7770371119181
 21
3.49245481294661
  0
LINE
  8
1
 10
-15.2229628880819
 20
7.49245481294661
 11
-15.2229628880819
 21
3.49245481294661
  0
LINE
  8
1
 10
30.7770371119181
 20
-4.50754518705339
 11
28.7770371119181
 21
-0.507545187053387
  0
POLYLINE
  8
1
 66
1
  0
VERTEX
  8
1
 10
32.7770371119181
 20
-0.507545187053388
  0
VERTEX
  8
1
 10
26.7770371119181
 20
-0.507545187053388
  0
VERTEX
  8
1
 10
26.7770371119181
 20
-4.50754518705339
  0
VERTEX
  8
1
 10
32.7770371119181
 20
-4.50754518705339
  0
VERTEX
  8
1
 10
32.7770371119181
 20
-0.507545187053388
  0
SEQEND
  8
1
  0
LINE
  8
1
 10
-25.2229628880819
 20
-4.50754518705339
 11
-23.2229628880819
 21
-0.507545187053387
  0
POLYLINE
  8
1
 66
1
  0
VERTEX
  8
1
 10
-27.2229628880819
 20
-0.507545187053388
  0
VERTEX
  8
1
 10
-21.2229628880819
 20
-0.507545187053388
  0
VERTEX
  8
1
 10
-21.2229628880819
 20
-4.50754518705339
  0
VERTEX
  8
1
 10
-27.2229628880819
 20
-4.50754518705339
  0
VERTEX
  8
1
 10
-27.2229628880819
 20
-0.507545187053388
  0
SEQEND
  8
1
  0
LINE
  8
1
 10
24.8456163468908
 20
8.50754518705339
 11
24.8456163468908
 21
6.50754518705339
  0
POLYLINE
  8
1
 66
1
  0
VERTEX
  8
1
 10
26.8456163468908
 20
5.5075451870534
  0
VERTEX
  8
1
 10
24.5956163468908
 20
5.5075451870534
  0
VERTEX
  8
1
 10
23.8456163468908
 20
4.20850708137673
  0
VERTEX
  8
1
 10
23.0956163468908
 20
5.5075451870534
  0
VERTEX
  8
1
 10
20.8456163468908
 20
5.5075451870534
  0
SEQEND
  8
1
  0
POLYLINE
  8
1
 66
1
  0
VERTEX
  8
1
 10
-20.2229628880819
 20
5.49245481294661
  0
VERTEX
  8
1
 10
-19.8062962214152
 20
3.49245481294661
  0
VERTEX
  8
1
 10
-18.9729628880819
 20
7.49245481294661
  0
VERTEX
  8
1
 10
-18.1396295547485
 20
3.49245481294661
  0
VERTEX
  8
1
 10
-17.3062962214152
 20
7.49245481294661
  0
VERTEX
  8
1
 10
-16.4729628880819
 20
3.49245481294661
  0
VERTEX
  8
1
 10
-15.6396295547485
 20
7.49245481294661
  0
VERTEX
  8
1
 10
-15.2229628880819
 20
5.49245481294661
  0
SEQEND
  8
1
  0
LINE
  8
1
 10
30.7770371119181
 20
2.99245481294661
 11
26.7770371119181
 21
2.99245481294661
  0
LINE
  8
1
 10
30.7770371119181
 20
3.49245481294661
 11
30.7770371119181
 21
0.492454812946613
  0
LINE
  8
1
 10
30.7770371119181
 20
0.992454812946613
 11
26.7770371119181
 21
0.992454812946613
  0
LINE
  8
1
 10
26.7770371119181
 20
3.49245481294661
 11
26.7770371119181
 21
-0.507545187053387
  0
LINE
  8
1
 10
-25.2229628880819
 20
2.99245481294661
 11
-21.2229628880819
 21
2.99245481294661
  0
LINE
  8
1
 10
-25.2229628880819
 20
3.49245481294661
 11
-25.2229628880819
 21
0.492454812946613
  0
LINE
  8
1
 10
-25.2229628880819
 20
0.992454812946613
 11
-21.2229628880819
 21
0.992454812946613
  0
LINE
  8
1
 10
-21.2229628880819
 20
-0.507545187053387
 11
-21.2229628880819
 21
3.49245481294661
  0
POLYLINE
  8
1
 66
1
  0
VERTEX
  8
1
 10
26.7497310001139
 20
-0.508447402415012
  0
VERTEX
  8
1
 10
20.7497310001139
 20
-0.508447402415012
  0
VERTEX
  8
1
 10
20.7497310001139
 20
-4.50844740241501
  0
VERTEX
  8
1
 10
26.7497310001139
 20
-4.50844740241501
  0
VERTEX
  8
1
 10
26.7497310001139
 20
-0.508447402415012
  0
SEQEND
  8
1
  0
LINE
  8
1
 10
26.7497310001139
 20
-0.508447402415012
 11
23.2856293849762
 21
-2.50844740241501
  0
LINE
  8
1
 10
26.7497310001139
 20
-4.50844740241501
 11
23.2856293849762
 21
-2.50844740241501
  0
POLYLINE
  8
1
 66
1
  0
VERTEX
  8
1
 10
-21.2229628880819
 20
-0.507545187053388
  0
VERTEX
  8
1
 10
-15.2229628880819
 20
-0.507545187053388
  0
VERTEX
  8
1
 10
-15.2229628880819
 20
-4.50754518705339
  0
VERTEX
  8
1
 10
-21.2229628880819
 20
-4.50754518705339
  0
VERTEX
  8
1
 10
-21.2229628880819
 20
-0.507545187053388
  0
SEQEND
  8
1
  0
LINE
  8
1
 10
-21.2229628880819
 20
-0.507545187053387
 11
-17.7588612729441
 21
-2.50754518705339
  0
LINE
  8
1
 10
-21.2229628880819
 20
-4.50754518705339
 11
-17.7588612729441
 21
-2.50754518705339
  0
LINE
  8
1
 10
-1.22296288808187
 20
-4.50754518705339
 11
-1.22296288808187
 21
-2.50754518705339
  0
INSERT
  8
1
  2
LCBP1
 10
-1.22296288808187
 20
-2.50754518705339
 50
90
  0
POLYLINE
  8
1
 66
1
  0
VERTEX
  8
1
 10
-3.22296288808187
 20
3.49245481294661
  0
VERTEX
  8
1
 10
8.77703711191813
 20
3.49245481294661
  0
VERTEX
  8
1
 10
8.77703711191813
 20
-4.50754518705339
  0
VERTEX
  8
1
 10
-3.22296288808187
 20
-4.50754518705339
  0
VERTEX
  8
1
 10
-3.22296288808187
 20
3.49245481294661
  0
SEQEND
  8
1
  0
LINE
  8
1
 10
-1.22296288808187
 20
3.49245481294661
 11
2.77703711191813
 21
-4.50754518705339
  0
INSERT
  8
1
  2
LCA1
 10
2.77703711191813
 20
-4.50754518705339
 50
-63.434948822922
  0
INSERT
  8
1
  2
LCA1R
 10
-1.22296288808187
 20
3.49245481294661
 50
-63.434948822922
  0
LINE
  8
1
 10
6.77703711191813
 20
-4.50754518705339
 11
6.77703711191813
 21
3.49245481294661
  0
INSERT
  8
1
  2
LCA1
 10
6.77703711191813
 20
3.49245481294661
 50
90
  0
INSERT
  8
1
  2
LCA1R
 10
6.77703711191813
 20
-4.50754518705339
 50
90
  0
LINE
  8
1
 10
18.7770371119181
 20
-4.50754518705339
 11
18.7770371119181
 21
-2.50754518705339
  0
INSERT
  8
1
  2
LCBP0
 10
18.7770371119181
 20
-2.50754518705339
 50
90
  0
POLYLINE
  8
1
 66
1
  0
VERTEX
  8
1
 10
8.77703711191813
 20
3.49245481294661
  0
VERTEX
  8
1
 10
20.7770371119181
 20
3.49245481294661
  0
VERTEX
  8
1
 10
20.7770371119181
 20
-4.50754518705339
  0
VERTEX
  8
1
 10
8.77703711191813
 20
-4.50754518705339
  0
VERTEX
  8
1
 10
8.77703711191813
 20
3.49245481294661
  0
SEQEND
  8
1
  0
LINE
  8
1
 10
10.7770371119181
 20
-4.50754518705339
 11
10.7770371119181
 21
3.49245481294661
  0
INSERT
  8
1
  2
LCA1
 10
10.7770371119181
 20
3.49245481294661
 50
90
  0
INSERT
  8
1
  2
LCA1R
 10
10.7770371119181
 20
-4.50754518705339
 50
90
  0
LINE
  8
1
 10
14.7770371119181
 20
-4.50754518705339
 11
18.7770371119181
 21
3.49245481294661
  0
INSERT
  8
1
  2
LCA1
 10
18.7770371119181
 20
3.49245481294661
 50
63.434948822922
  0
INSERT
  8
1
  2
LCA1R
 10
14.7770371119181
 20
-4.50754518705339
 50
63.434948822922
  0
LINE
  8
1
 10
-5.22296288808187
 20
-4.50754518705339
 11
-5.22296288808187
 21
-2.50754518705339
  0
INSERT
  8
1
  2
LCBP0
 10
-5.22296288808187
 20
-2.50754518705339
 50
90
  0
POLYLINE
  8
1
 66
1
  0
VERTEX
  8
1
 10
-15.2229628880819
 20
3.49245481294661
  0
VERTEX
  8
1
 10
-3.22296288808187
 20
3.49245481294661
  0
VERTEX
  8
1
 10
-3.22296288808187
 20
-4.50754518705339
  0
VERTEX
  8
1
 10
-15.2229628880819
 20
-4.50754518705339
  0
VERTEX
  8
1
 10
-15.2229628880819
 20
3.49245481294661
  0
SEQEND
  8
1
  0
LINE
  8
1
 10
-13.2229628880819
 20
-4.50754518705339
 11
-13.2229628880819
 21
3.49245481294661
  0
INSERT
  8
1
  2
LCA1
 10
-13.2229628880819
 20
3.49245481294661
 50
90
  0
INSERT
  8
1
  2
LCA1R
 10
-13.2229628880819
 20
-4.50754518705339
 50
90
  0
LINE
  8
1
 10
-9.22296288808187
 20
-4.50754518705339
 11
-5.22296288808187
 21
3.49245481294661
  0
INSERT
  8
1
  2
LCA1
 10
-5.22296288808187
 20
3.49245481294661
 50
63.434948822922
  0
INSERT
  8
1
  2
LCA1R
 10
-9.22296288808187
 20
-4.50754518705339
 50
63.434948822922
  0
CIRCLE
  8
CONNECTIONS
 10
-21.181702041626
 20
-8.46307935911149
 40
0
  0
CIRCLE
  8
CONNECTIONS
 10
32.7770371119181
 20
-2.50754518705338
 40
0
  0
CIRCLE
  8
CONNECTIONS
 10
-27.2382111231486
 20
-2.50754518705339
 40
0
  0
CIRCLE
  8
CONNECTIONS
 10
6.77703711191813
 20
7.49245481294661
 40
0
  0
CIRCLE
  8
CONNECTIONS
 10
-1.22296288808187
 20
7.49245481294661
 40
0
  0
CIRCLE
  8
CONNECTIONS
 10
2.77703711191813
 20
-8.50754518705339
 40
0
  0
CIRCLE
  8
CONNECTIONS
 10
-1.22296288808187
 20
-8.50754518705339
 40
0
  0
CIRCLE
  8
CONNECTIONS
 10
6.77703711191813
 20
-8.50754518705339
 40
0
  0
ENDBLK
  8
0
  0
ENDSEC
  0
SECTION
  2
ENTITIES
  0
INSERT
  8
1
  2
B201833_00992924
 10
32.7770371119181
 20
8.50754518705339
  0
ENDSEC
  0
EOF
