  0
SECTION
  2
HEADER
  9
$LIMMIN
 10
0
 20
0
  9
$LIMMAX
 10
52.5
 20
74.25
  9
$EXTMIN
 10
0
 20
66.8024857838949
  9
$EXTMAX
 10
0
 20
32.0000000794729
  0
ENDSEC
  0
SECTION
  2
TABLES
  0
TABLE
  2
LTYPE
 70
9
  0
LTYPE
  2
CONTINUOUS
 70
64
  3
Solid line
 72
65
 73
0
 40
0
  0
LTYPE
  2
DASHED
 70
64
  3
__ __ __ __ __ __ __ __ __
 72
65
 73
2
 40
0.75
 49
0.5
 49
-0.25
  0
LTYPE
  2
DOT
 70
64
  3
...........................
 72
65
 73
2
 40
0.25
 49
0
 49
-0.25
  0
LTYPE
  2
DASHDOT
 70
64
  3
__ . __ . __ . __ . __ . __ . 
 72
65
 73
4
 40
1
 49
0.5
 49
-0.25
 49
0
 49
-0.25
  0
ENDTAB
  0
TABLE
  2
LAYER
 70
10
  0
LAYER
  2
1
 70
0
 62
7
  6
CONTINUOUS
  0
LAYER
  2
CONNECTIONS
 70
0
 62
-7
  6
CONTINUOUS
  0
ENDTAB
  0
ENDSEC
  0
SECTION
  2
BLOCKS
  0
BLOCK
  8
0
  2
TRICON
 70
0
 10
0
 20
0
  0
POLYLINE
  8
1
 70
1
 66
1
 40
0.5
 41
0.5
  0
VERTEX
  8
1
 10
-0.25
 20
0
 42
1
  0
VERTEX
  8
1
 10
0.25
 20
0
 42
1
  0
SEQEND
  8
1
  0
ENDBLK
  8
0
  0
BLOCK
  8
0
  2
TRICONSMALL
 70
0
 10
0
 20
0
  0
POLYLINE
  8
1
 70
1
 66
1
 40
0.25
 41
0.25
  0
VERTEX
  8
1
 10
-0.125
 20
0
 42
1
  0
VERTEX
  8
1
 10
0.125
 20
0
 42
1
  0
SEQEND
  8
1
  0
ENDBLK
  8
0
  0
BLOCK
  8
0
  2
TRICONCIRCLE
 70
0
 10
0
 20
0
  0
CIRCLE
  8
1
 10
0
 20
0
 40
0.5
  0
ENDBLK
  8
0
  0
BLOCK
  8
0
  2
LCBP0
 70
0
 10
0
 20
0
  0
LINE
  8
1
 10
0
 20
-0.46875
 11
0
 21
0.46875
  0
ENDBLK
  8
0
  0
BLOCK
  8
0
  2
LCBP1
 70
0
 10
0
 20
0
  0
LINE
  8
1
 10
0
 20
-0.625
 11
0
 21
0.625
  0
ENDBLK
  8
0
  0
BLOCK
  8
0
  2
LCBP2
 70
0
 10
0
 20
0
  0
LINE
  8
1
 10
0
 20
-0.9375
 11
0
 21
0.9375
  0
ENDBLK
  8
0
  0
BLOCK
  8
0
  2
LCA1
 70
0
 10
0
 20
0
  0
SOLID
  8
1
 62
7 
 10
0
 20
0
 11
-1.4
 21
-0.275
 12
-1.4
 22
0.275
 13
-1.4
 23
0.275
  0
ENDBLK
  8
0
  0
BLOCK
  8
0
  2
LCA2
 70
0
 10
0
 20
0
  0
SOLID
  8
1
 62
7 
 10
0
 20
0
 11
-1.65
 21
-0.525
 12
-1.65
 22
0.525
 13
-1.65
 23
0.525
  0
ENDBLK
  8
0
  0
BLOCK
  8
0
  2
LCA3
 70
0
 10
0
 20
0
  0
SOLID
  8
1
 62
7 
 10
0
 20
0
 11
-2.15
 21
-1.15
 12
-2.15
 22
1.15
 13
-2.15
 23
1.15
  0
ENDBLK
  8
0
  0
BLOCK
  8
0
  2
LCA1R
 70
0
 10
0
 20
0
  0
SOLID
  8
1
 62
7 
 10
0
 20
0
 11
1.4
 21
-0.275
 12
1.4
 22
0.275
 13
1.4
 23
0.275
  0
ENDBLK
  8
0
  0
BLOCK
  8
0
  2
LCA2R
 70
0
 10
0
 20
0
  0
SOLID
  8
1
 62
7 
 10
0
 20
0
 11
1.65
 21
-0.525
 12
1.65
 22
0.525
 13
1.65
 23
0.525
  0
ENDBLK
  8
0
  0
BLOCK
  8
0
  2
LCA3R
 70
0
 10
0
 20
0
  0
SOLID
  8
1
 62
7 
 10
0
 20
0
 11
2.15
 21
-1.15
 12
2.15
 22
1.15
 13
2.15
 23
1.15
  0
ENDBLK
  8
0
  0
BLOCK
  8
0
  2
B209990_00992864
 70
0
 10
0
 20
0
  0
POLYLINE
  8
1
 66
1
  0
VERTEX
  8
1
 10
-33.4012428919474
 20
12
  0
VERTEX
  8
1
 10
18.5987571080526
 20
12
  0
VERTEX
  8
1
 10
18.5987571080526
 20
-12
  0
VERTEX
  8
1
 10
-33.4012428919474
 20
-12
  0
VERTEX
  8
1
 10
-33.4012428919474
 20
12
  0
SEQEND
  8
1
  0
TEXT
  8
1
 40
2.475
 41
0.75
  1
1
  7
STANDARD
 72
2
 73
2
 10
-13.0360218683879
 20
-14
 11
-13.0360218683879
 21
-14
  0
TEXT
  8
1
 40
2.475
 41
0.75
  1
14
  7
STANDARD
 72
2
 73
2
 10
10.5987571080526
 20
13.6277674039205
 11
10.5987571080526
 21
13.6277674039205
  0
TEXT
  8
1
 40
2.475
 41
0.75
  1
5
  7
STANDARD
 72
2
 73
3
 10
2.59875710805257
 20
15.38125
 11
2.59875710805257
 21
15.38125
  0
TEXT
  8
1
 40
2.475
 41
0.75
  1
4
  7
STANDARD
 72
2
 73
2
 10
-5.40124289194743
 20
13.6277674039205
 11
-5.40124289194743
 21
13.6277674039205
  0
TEXT
  8
1
 40
2.475
 41
0.75
  1
1
  7
STANDARD
 72
2
 73
3
 10
-13.4012428919474
 20
15.38125
 11
-13.4012428919474
 21
15.38125
  0
LINE
  8
1
 10
10.5987571080526
 20
16
 11
10.5987571080526
 21
12
  0
LINE
  8
1
 10
2.59875710805257
 20
12
 11
2.59875710805257
 21
16
  0
LINE
  8
1
 10
-5.40124289194743
 20
16
 11
-5.40124289194743
 21
12
  0
LINE
  8
1
 10
-13.4012428919474
 20
16
 11
-13.4012428919474
 21
12
  0
LINE
  8
1
 10
-21.4012428919474
 20
16
 11
-21.4012428919474
 21
12
  0
LINE
  8
1
 10
-29.4012428919474
 20
16
 11
-29.4012428919474
 21
12
  0
TEXT
  8
1
 40
2.475
 41
0.75
  1
2
  7
STANDARD
 72
2
 10
-21.4012428919474
 20
-15.2625
 11
-21.4012428919474
 21
-15.2625
  0
TEXT
  8
1
 40
2.475
 41
0.75
  1
3
  7
STANDARD
 72
2
 10
-29.4012428919474
 20
-15.2625
 11
-29.4012428919474
 21
-15.2625
  0
TEXT
  8
1
 40
2.475
 41
0.75
  1
14
  7
STANDARD
 10
11.0987571080526
 20
-15.2625
  0
TEXT
  8
1
 40
2.475
 41
0.75
  1
5
  7
STANDARD
 73
2
 10
3.59875710805257
 20
-14
 11
3.59875710805257
 21
-14
  0
LINE
  8
1
 10
10.5987571080526
 20
-12
 11
10.5987571080526
 21
-16
  0
LINE
  8
1
 10
2.59875710805257
 20
-12
 11
2.59875710805257
 21
-16
  0
LINE
  8
1
 10
-13.4012428919474
 20
-16
 11
-13.4012428919474
 21
-12
  0
LINE
  8
1
 10
-21.4012428919474
 20
-12
 11
-21.4012428919474
 21
-16
  0
LINE
  8
1
 10
-29.4012428919474
 20
-12
 11
-29.4012428919474
 21
-16
  0
LINE
  8
1
 10
-5.40124289194743
 20
-12
 11
-5.40124289194743
 21
-16
  0
TEXT
  8
1
 40
2.475
 41
0.75
  1
(14)
  7
STANDARD
 73
2
 10
21.6664139429728
 20
-4
 11
21.6664139429728
 21
-4
  0
TEXT
  8
1
 40
2.475
 41
0.75
  1
(82/84)
  7
STANDARD
 73
2
 10
19.6664139429728
 20
13.6277674039205
 11
19.6664139429728
 21
13.6277674039205
  0
LINE
  8
1
 10
18.5987571080526
 20
-4
 11
20.5987571080526
 21
-4
  0
INSERT
  8
1
  2
LCBP1
 10
20.5987571080526
 20
-4
 50
0
  0
LINE
  8
1
 10
10.5987571080526
 20
12
 11
10.5987571080526
 21
2
  0
LINE
  8
1
 10
2.59875710805257
 20
12
 11
2.59875710805257
 21
8
  0
LINE
  8
1
 10
-5.40124289194743
 20
12
 11
-5.40124289194743
 21
-4
  0
LINE
  8
1
 10
-13.4012428919474
 20
12
 11
-13.4012428919474
 21
-12
  0
LINE
  8
1
 10
10.5987571080526
 20
-12
 11
10.5987571080526
 21
-4
  0
POLYLINE
  8
1
 70
1
 66
1
 40
0.5
 41
0.5
  0
VERTEX
  8
1
 10
-13.6512428919474
 20
2
 42
1
  0
VERTEX
  8
1
 10
-13.1512428919474
 20
2
 42
1
  0
SEQEND
  8
1
  0
LINE
  8
1
 10
2.59875710805257
 20
8
 11
18.5987571080526
 21
8
  0
LINE
  8
1
 10
10.5987571080526
 20
2
 11
-13.4012428919474
 21
2
  0
POLYLINE
  8
1
 70
1
 66
1
 40
0.5
 41
0.5
  0
VERTEX
  8
1
 10
10.3487571080526
 20
-4
 42
1
  0
VERTEX
  8
1
 10
10.8487571080526
 20
-4
 42
1
  0
SEQEND
  8
1
  0
LINE
  8
1
 10
-5.40124289194743
 20
-4
 11
18.5987571080526
 21
-4
  0
LINE
  8
1
 10
-5.40124289194743
 20
-12
 11
-5.40124289194743
 21
-10
  0
INSERT
  8
1
  2
LCBP1
 10
-5.40124289194743
 20
-10
 50
90
  0
LINE
  8
1
 10
2.59875710805257
 20
-12
 11
2.59875710805257
 21
-10
  0
INSERT
  8
1
  2
LCBP1
 10
2.59875710805257
 20
-10
 50
90
  0
LINE
  8
1
 10
-29.4012428919474
 20
-12
 11
-29.4012428919474
 21
-10
  0
INSERT
  8
1
  2
LCBP1
 10
-29.4012428919474
 20
-10
 50
90
  0
LINE
  8
1
 10
-21.4012428919474
 20
-12
 11
-21.4012428919474
 21
-10
  0
INSERT
  8
1
  2
LCBP1
 10
-21.4012428919474
 20
-10
 50
90
  0
LINE
  8
1
 10
-29.4012428919474
 20
12
 11
-29.4012428919474
 21
10
  0
INSERT
  8
1
  2
LCBP1
 10
-29.4012428919474
 20
10
 50
-90
  0
LINE
  8
1
 10
-21.4012428919474
 20
12
 11
-21.4012428919474
 21
10
  0
INSERT
  8
1
  2
LCBP1
 10
-21.4012428919474
 20
10
 50
-90
  0
POLYLINE
  8
1
 66
1
  0
VERTEX
  8
1
 10
30.5987571080526
 20
7
  0
VERTEX
  8
1
 10
32.5987571080526
 20
8
  0
VERTEX
  8
1
 10
30.5987571080526
 20
9
  0
SEQEND
  8
1
  0
LINE
  8
1
 10
18.5987571080526
 20
8
 11
22.5987571080526
 21
8
  0
LINE
  8
1
 10
28.5987571080526
 20
10
 11
28.5987571080526
 21
8
  0
LINE
  8
1
 10
26.5987571080526
 20
6
 11
26.5987571080526
 21
8
  0
LINE
  8
1
 10
24.5987571080526
 20
10
 11
24.5987571080526
 21
8
  0
POLYLINE
  8
1
 66
1
  0
VERTEX
  8
1
 10
22.5987571080526
 20
10
  0
VERTEX
  8
1
 10
30.5987571080526
 20
10
  0
VERTEX
  8
1
 10
30.5987571080526
 20
6
  0
VERTEX
  8
1
 10
22.5987571080526
 20
6
  0
VERTEX
  8
1
 10
22.5987571080526
 20
10
  0
SEQEND
  8
1
  0
CIRCLE
  8
CONNECTIONS
 10
-29.4012428919474
 20
-16
 40
0
  0
CIRCLE
  8
CONNECTIONS
 10
-21.4012428919474
 20
-16
 40
0
  0
CIRCLE
  8
CONNECTIONS
 10
-13.4012428919474
 20
16
 40
0
  0
CIRCLE
  8
CONNECTIONS
 10
-5.40124289194743
 20
-16
 40
0
  0
CIRCLE
  8
CONNECTIONS
 10
2.59875710805257
 20
16
 40
0
  0
CIRCLE
  8
CONNECTIONS
 10
10.5987571080526
 20
-16
 40
0
  0
CIRCLE
  8
CONNECTIONS
 10
-13.4012428919474
 20
-16
 40
0
  0
CIRCLE
  8
CONNECTIONS
 10
2.59875710805257
 20
-16
 40
0
  0
CIRCLE
  8
CONNECTIONS
 10
-29.4012428919474
 20
16
 40
0
  0
CIRCLE
  8
CONNECTIONS
 10
-21.4012428919474
 20
16
 40
0
  0
CIRCLE
  8
CONNECTIONS
 10
-5.40124289194743
 20
16
 40
0
  0
CIRCLE
  8
CONNECTIONS
 10
10.5987571080526
 20
16
 40
0
  0
ENDBLK
  8
0
  0
ENDSEC
  0
SECTION
  2
ENTITIES
  0
INSERT
  8
1
  2
B209990_00992864
 10
33.4012428919474
 20
16
  0
ENDSEC
  0
EOF
