  0
SECTION
  2
HEADER
  9
$LIMMIN
 10
0
 20
0
  9
$LIMMAX
 10
52.5
 20
74.25
  9
$EXTMIN
 10
0
 20
30.5969324111938
  9
$EXTMAX
 10
0
 20
12.4505202770233
  0
ENDSEC
  0
SECTION
  2
TABLES
  0
TABLE
  2
LTYPE
 70
9
  0
LTYPE
  2
CONTINUOUS
 70
64
  3
Solid line
 72
65
 73
0
 40
0
  0
LTYPE
  2
DASHED
 70
64
  3
__ __ __ __ __ __ __ __ __
 72
65
 73
2
 40
0.75
 49
0.5
 49
-0.25
  0
LTYPE
  2
DOT
 70
64
  3
...........................
 72
65
 73
2
 40
0.25
 49
0
 49
-0.25
  0
LTYPE
  2
DASHDOT
 70
64
  3
__ . __ . __ . __ . __ . __ . 
 72
65
 73
4
 40
1
 49
0.5
 49
-0.25
 49
0
 49
-0.25
  0
ENDTAB
  0
TABLE
  2
LAYER
 70
10
  0
LAYER
  2
1
 70
0
 62
7
  6
CONTINUOUS
  0
LAYER
  2
CONNECTIONS
 70
0
 62
-7
  6
CONTINUOUS
  0
ENDTAB
  0
ENDSEC
  0
SECTION
  2
BLOCKS
  0
BLOCK
  8
0
  2
TRICON
 70
0
 10
0
 20
0
  0
POLYLINE
  8
1
 70
1
 66
1
 40
0.5
 41
0.5
  0
VERTEX
  8
1
 10
-0.25
 20
0
 42
1
  0
VERTEX
  8
1
 10
0.25
 20
0
 42
1
  0
SEQEND
  8
1
  0
ENDBLK
  8
0
  0
BLOCK
  8
0
  2
TRICONSMALL
 70
0
 10
0
 20
0
  0
POLYLINE
  8
1
 70
1
 66
1
 40
0.25
 41
0.25
  0
VERTEX
  8
1
 10
-0.125
 20
0
 42
1
  0
VERTEX
  8
1
 10
0.125
 20
0
 42
1
  0
SEQEND
  8
1
  0
ENDBLK
  8
0
  0
BLOCK
  8
0
  2
TRICONCIRCLE
 70
0
 10
0
 20
0
  0
CIRCLE
  8
1
 10
0
 20
0
 40
0.5
  0
ENDBLK
  8
0
  0
BLOCK
  8
0
  2
LCBP0
 70
0
 10
0
 20
0
  0
LINE
  8
1
 10
0
 20
-0.46875
 11
0
 21
0.46875
  0
ENDBLK
  8
0
  0
BLOCK
  8
0
  2
LCBP1
 70
0
 10
0
 20
0
  0
LINE
  8
1
 10
0
 20
-0.625
 11
0
 21
0.625
  0
ENDBLK
  8
0
  0
BLOCK
  8
0
  2
LCBP2
 70
0
 10
0
 20
0
  0
LINE
  8
1
 10
0
 20
-0.9375
 11
0
 21
0.9375
  0
ENDBLK
  8
0
  0
BLOCK
  8
0
  2
LCA1
 70
0
 10
0
 20
0
  0
SOLID
  8
1
 62
7 
 10
0
 20
0
 11
-1.4
 21
-0.275
 12
-1.4
 22
0.275
 13
-1.4
 23
0.275
  0
ENDBLK
  8
0
  0
BLOCK
  8
0
  2
LCA2
 70
0
 10
0
 20
0
  0
SOLID
  8
1
 62
7 
 10
0
 20
0
 11
-1.65
 21
-0.525
 12
-1.65
 22
0.525
 13
-1.65
 23
0.525
  0
ENDBLK
  8
0
  0
BLOCK
  8
0
  2
LCA3
 70
0
 10
0
 20
0
  0
SOLID
  8
1
 62
7 
 10
0
 20
0
 11
-2.15
 21
-1.15
 12
-2.15
 22
1.15
 13
-2.15
 23
1.15
  0
ENDBLK
  8
0
  0
BLOCK
  8
0
  2
LCA1R
 70
0
 10
0
 20
0
  0
SOLID
  8
1
 62
7 
 10
0
 20
0
 11
1.4
 21
-0.275
 12
1.4
 22
0.275
 13
1.4
 23
0.275
  0
ENDBLK
  8
0
  0
BLOCK
  8
0
  2
LCA2R
 70
0
 10
0
 20
0
  0
SOLID
  8
1
 62
7 
 10
0
 20
0
 11
1.65
 21
-0.525
 12
1.65
 22
0.525
 13
1.65
 23
0.525
  0
ENDBLK
  8
0
  0
BLOCK
  8
0
  2
LCA3R
 70
0
 10
0
 20
0
  0
SOLID
  8
1
 62
7 
 10
0
 20
0
 11
2.15
 21
-1.15
 12
2.15
 22
1.15
 13
2.15
 23
1.15
  0
ENDBLK
  8
0
  0
BLOCK
  8
0
  2
B2949_00992830
 70
0
 10
0
 20
0
  0
POLYLINE
  8
1
 66
1
  0
VERTEX
  8
1
 10
-15.2984662055969
 20
4.27474006017049
  0
VERTEX
  8
1
 10
-5.29846620559692
 20
4.27474006017049
  0
VERTEX
  8
1
 10
-5.29846620559692
 20
-5.72525993982951
  0
VERTEX
  8
1
 10
-15.2984662055969
 20
-5.72525993982951
  0
VERTEX
  8
1
 10
-15.2984662055969
 20
4.27474006017049
  0
SEQEND
  8
1
  0
LINE
  8
1
  6
DOT
 10
-9.29846620559692
 20
1.27474006017049
 11
-6.79846620559692
 21
1.27474006017049
  0
LINE
  8
1
 10
-11.4984662055969
 20
2.07474006017049
 11
-11.4984662055969
 21
0.474740060170489
  0
LINE
  8
1
 10
-10.0984662055969
 20
2.07474006017049
 11
-10.0984662055969
 21
0.474740060170489
  0
POLYLINE
  8
1
 66
1
  0
VERTEX
  8
1
 10
-10.7984662055969
 20
2.77474006017049
  0
VERTEX
  8
1
 10
-12.2984662055969
 20
1.27474006017049
  0
VERTEX
  8
1
 10
-10.7984662055969
 20
-0.225259939829508
  0
VERTEX
  8
1
 10
-9.29846620559692
 20
1.27474006017049
  0
VERTEX
  8
1
 10
-10.7984662055969
 20
2.77474006017049
  0
SEQEND
  8
1
  0
LINE
  8
1
 10
-5.29846620559692
 20
-4.72525993982951
 11
-2.29846620559692
 21
-4.72525993982951
  0
LINE
  8
1
 10
-5.29846620559692
 20
-0.725259939829508
 11
-2.29846620559692
 21
-0.725259939829508
  0
LINE
  8
1
 10
-5.29846620559692
 20
3.27474006017049
 11
-2.29846620559692
 21
3.27474006017049
  0
SOLID
  8
1
 10
-2.29846620559692
 20
-4.47525993982951
 11
-0.798466205596924
 21
-4.47525993982951
 12
-2.29846620559692
 22
-4.97525993982951
 13
-0.798466205596924
 23
-4.97525993982951
  0
SOLID
  8
1
 10
-0.798466205596924
 20
-4.97525993982951
 11
-2.29846620559692
 21
-4.97525993982951
 12
-2.29846620559692
 22
-4.97525993982951
 13
-2.29846620559692
 23
-4.47525993982951
  0
SOLID
  8
1
 10
-2.29846620559692
 20
-0.475259939829508
 11
-0.798466205596924
 21
-0.475259939829508
 12
-2.29846620559692
 22
-0.975259939829508
 13
-0.798466205596924
 23
-0.975259939829508
  0
SOLID
  8
1
 10
-0.798466205596924
 20
-0.975259939829508
 11
-2.29846620559692
 21
-0.975259939829508
 12
-2.29846620559692
 22
-0.975259939829508
 13
-2.29846620559692
 23
-0.475259939829508
  0
SOLID
  8
1
 10
-2.29846620559692
 20
3.52474006017049
 11
-0.798466205596924
 21
3.52474006017049
 12
-2.29846620559692
 22
3.02474006017049
 13
-0.798466205596924
 23
3.02474006017049
  0
SOLID
  8
1
 10
-0.798466205596924
 20
3.02474006017049
 11
-2.29846620559692
 21
3.02474006017049
 12
-2.29846620559692
 22
3.02474006017049
 13
-2.29846620559692
 23
3.52474006017049
  0
LINE
  8
1
 10
-0.298466205596924
 20
3.27474006017049
 11
0.701533794403076
 21
3.27474006017049
  0
ARC
  8
1
 10
-1.29846620559692
 20
3.27474006017049
 40
1
 50
270
 51
90
  0
LINE
  8
1
 10
-0.298466205596924
 20
-4.72525993982951
 11
0.701533794403076
 21
-4.72525993982951
  0
ARC
  8
1
 10
-1.29846620559692
 20
-4.72525993982951
 40
1
 50
270
 51
90
  0
LINE
  8
1
 10
-0.298466205596924
 20
-0.725259939829508
 11
0.701533794403076
 21
-0.725259939829508
  0
ARC
  8
1
 10
-1.29846620559692
 20
-0.725259939829508
 40
1
 50
270
 51
90
  0
LINE
  8
1
 10
0.101533794403071
 20
3.27474006017049
 11
12.2015337944031
 21
3.27474006017049
  0
LINE
  8
1
 10
10.4515337944031
 20
-4.72525993982951
 11
12.2015337944031
 21
-4.72525993982951
  0
LINE
  8
1
 10
8.70153379440308
 20
-0.725259939829508
 11
10.2015337944031
 21
-0.725259939829508
  0
LINE
  8
1
 10
10.2015337944031
 20
-0.725259939829508
 11
10.2015337944031
 21
-4.47525993982951
  0
LINE
  8
1
 10
0.701533794403076
 20
-4.72525993982951
 11
9.95153379440308
 21
-4.72525993982951
  0
CIRCLE
  8
1
 10
10.2015337944031
 20
-4.72525993982951
 40
0.25
  0
LINE
  8
1
 10
4.70153379440308
 20
-0.725259939829508
 11
0.701533794403076
 21
-0.725259939829508
  0
TEXT
  8
1
 40
1.8
 41
0.75
  1
R
  7
STANDARD
 72
1
 10
6.20153379440307
 20
0.174740060170492
 11
6.20153379440307
 21
0.174740060170492
  0
TEXT
  8
1
 40
1.125
 41
0.75
  1
L
  7
STANDARD
 72
1
 10
7.91499980290731
 20
0.180664698282877
 11
7.91499980290731
 21
0.180664698282877
  0
POLYLINE
  8
1
 66
1
  0
VERTEX
  8
1
 10
4.70153379440308
 20
-0.225259939829508
  0
VERTEX
  8
1
 10
8.70153379440308
 20
-0.225259939829508
  0
VERTEX
  8
1
 10
8.70153379440308
 20
-1.22525993982951
  0
VERTEX
  8
1
 10
4.70153379440308
 20
-1.22525993982951
  0
VERTEX
  8
1
 10
4.70153379440308
 20
-0.225259939829508
  0
SEQEND
  8
1
  0
LINE
  8
1
 10
-7.29846620559692
 20
-0.725259939829508
 11
-5.29846620559692
 21
-0.725259939829508
  0
LINE
  8
1
 10
-7.29846620559692
 20
3.27474006017049
 11
-5.29846620559692
 21
3.27474006017049
  0
LINE
  8
1
 10
-6.29846620559692
 20
2.77474006017049
 11
-7.29846620559692
 21
0.274740060170492
  0
LINE
  8
1
 10
-7.29846620559692
 20
2.27474006017049
 11
-6.29846620559692
 21
2.27474006017049
  0
LINE
  8
1
 10
-7.29846620559692
 20
2.27474006017049
 11
-7.29846620559692
 21
3.27474006017049
  0
LINE
  8
1
 10
-7.29846620559692
 20
0.274740060170492
 11
-7.29846620559692
 21
-0.725259939829508
  0
TEXT
  8
1
 40
1.8
 41
0.75
  1
-
  7
STANDARD
 10
13.2015337944031
 20
-5.32525993982951
  0
TEXT
  8
1
 40
1.8
 41
0.75
  1
+
  7
STANDARD
 10
12.7015337944031
 20
2.17474006017049
  0
TEXT
  8
1
 40
1.8
 41
0.75
  1
BN
  7
STANDARD
 10
-0.298466205596924
 20
3.67474006017049
  0
TEXT
  8
1
 40
1.8
 41
0.75
  1
WH
  7
STANDARD
 10
-0.798466205596924
 20
-0.325259939829508
  0
TEXT
  8
1
 40
1.8
 41
0.75
  1
BU
  7
STANDARD
 10
-0.298466205596924
 20
-4.32525993982951
  0
TEXT
  8
1
 40
1.8
 41
0.75
  1
3
  7
STANDARD
 10
-4.79846620559692
 20
-4.32525993982951
  0
TEXT
  8
1
 40
1.8
 41
0.75
  1
2
  7
STANDARD
 10
-4.79846620559692
 20
-0.325259939829508
  0
TEXT
  8
1
 40
1.8
 41
0.75
  1
1
  7
STANDARD
 10
-4.79846620559692
 20
3.67474006017049
  0
TEXT
  8
1
 40
1.8
 41
0.75
  1
PNP
  7
STANDARD
 10
-13.7984662055969
 20
-4.82525993982951
  0
LINE
  8
1
 10
-13.2984662055969
 20
-1.22525993982951
 11
-12.7984662055969
 21
-1.22525993982951
  0
LINE
  8
1
 10
-8.79846620559692
 20
-1.22525993982951
 11
-8.29846620559692
 21
-1.22525993982951
  0
ARC
  8
1
 10
-10.2984662055969
 20
-1.22525993982951
 40
0.5
 50
0
 51
180
  0
ARC
  8
1
 10
-9.29846620559692
 20
-1.22525993982951
 40
0.5
 50
0
 51
180
  0
ARC
  8
1
 10
-12.2984662055969
 20
-1.22525993982951
 40
0.5
 50
0
 51
180
  0
ARC
  8
1
 10
-11.2984662055969
 20
-1.22525993982951
 40
0.5
 50
0
 51
180
  0
ENDBLK
  8
0
  0
ENDSEC
  0
SECTION
  2
ENTITIES
  0
INSERT
  8
1
  2
B2949_00992830
 10
15.2984662055969
 20
6.22525993982951
  0
ENDSEC
  0
EOF
