  0
SECTION
  2
HEADER
  9
$LIMMIN
 10
0
 20
0
  9
$LIMMAX
 10
52.5
 20
74.25
  9
$EXTMIN
 10
0
 20
75
  9
$EXTMAX
 10
0
 20
32
  0
ENDSEC
  0
SECTION
  2
TABLES
  0
TABLE
  2
LTYPE
 70
9
  0
LTYPE
  2
CONTINUOUS
 70
64
  3
Solid line
 72
65
 73
0
 40
0
  0
LTYPE
  2
DASHED
 70
64
  3
__ __ __ __ __ __ __ __ __
 72
65
 73
2
 40
0.75
 49
0.5
 49
-0.25
  0
LTYPE
  2
DOT
 70
64
  3
...........................
 72
65
 73
2
 40
0.25
 49
0
 49
-0.25
  0
LTYPE
  2
DASHDOT
 70
64
  3
__ . __ . __ . __ . __ . __ . 
 72
65
 73
4
 40
1
 49
0.5
 49
-0.25
 49
0
 49
-0.25
  0
ENDTAB
  0
TABLE
  2
LAYER
 70
10
  0
LAYER
  2
1
 70
0
 62
7
  6
CONTINUOUS
  0
LAYER
  2
CONNECTIONS
 70
0
 62
-7
  6
CONTINUOUS
  0
ENDTAB
  0
ENDSEC
  0
SECTION
  2
BLOCKS
  0
BLOCK
  8
0
  2
TRICON
 70
0
 10
0
 20
0
  0
POLYLINE
  8
1
 70
1
 66
1
 40
0.5
 41
0.5
  0
VERTEX
  8
1
 10
-0.25
 20
0
 42
1
  0
VERTEX
  8
1
 10
0.25
 20
0
 42
1
  0
SEQEND
  8
1
  0
ENDBLK
  8
0
  0
BLOCK
  8
0
  2
TRICONSMALL
 70
0
 10
0
 20
0
  0
POLYLINE
  8
1
 70
1
 66
1
 40
0.25
 41
0.25
  0
VERTEX
  8
1
 10
-0.125
 20
0
 42
1
  0
VERTEX
  8
1
 10
0.125
 20
0
 42
1
  0
SEQEND
  8
1
  0
ENDBLK
  8
0
  0
BLOCK
  8
0
  2
TRICONCIRCLE
 70
0
 10
0
 20
0
  0
CIRCLE
  8
1
 10
0
 20
0
 40
0.5
  0
ENDBLK
  8
0
  0
BLOCK
  8
0
  2
LCBP0
 70
0
 10
0
 20
0
  0
LINE
  8
1
 10
0
 20
-0.46875
 11
0
 21
0.46875
  0
ENDBLK
  8
0
  0
BLOCK
  8
0
  2
LCBP1
 70
0
 10
0
 20
0
  0
LINE
  8
1
 10
0
 20
-0.625
 11
0
 21
0.625
  0
ENDBLK
  8
0
  0
BLOCK
  8
0
  2
LCBP2
 70
0
 10
0
 20
0
  0
LINE
  8
1
 10
0
 20
-0.9375
 11
0
 21
0.9375
  0
ENDBLK
  8
0
  0
BLOCK
  8
0
  2
LCA1
 70
0
 10
0
 20
0
  0
SOLID
  8
1
 62
7 
 10
0
 20
0
 11
-1.4
 21
-0.275
 12
-1.4
 22
0.275
 13
-1.4
 23
0.275
  0
ENDBLK
  8
0
  0
BLOCK
  8
0
  2
LCA2
 70
0
 10
0
 20
0
  0
SOLID
  8
1
 62
7 
 10
0
 20
0
 11
-1.65
 21
-0.525
 12
-1.65
 22
0.525
 13
-1.65
 23
0.525
  0
ENDBLK
  8
0
  0
BLOCK
  8
0
  2
LCA3
 70
0
 10
0
 20
0
  0
SOLID
  8
1
 62
7 
 10
0
 20
0
 11
-2.15
 21
-1.15
 12
-2.15
 22
1.15
 13
-2.15
 23
1.15
  0
ENDBLK
  8
0
  0
BLOCK
  8
0
  2
LCA1R
 70
0
 10
0
 20
0
  0
SOLID
  8
1
 62
7 
 10
0
 20
0
 11
1.4
 21
-0.275
 12
1.4
 22
0.275
 13
1.4
 23
0.275
  0
ENDBLK
  8
0
  0
BLOCK
  8
0
  2
LCA2R
 70
0
 10
0
 20
0
  0
SOLID
  8
1
 62
7 
 10
0
 20
0
 11
1.65
 21
-0.525
 12
1.65
 22
0.525
 13
1.65
 23
0.525
  0
ENDBLK
  8
0
  0
BLOCK
  8
0
  2
LCA3R
 70
0
 10
0
 20
0
  0
SOLID
  8
1
 62
7 
 10
0
 20
0
 11
2.15
 21
-1.15
 12
2.15
 22
1.15
 13
2.15
 23
1.15
  0
ENDBLK
  8
0
  0
BLOCK
  8
0
  2
B18108_00992823
 70
0
 10
0
 20
0
  0
POLYLINE
  8
1
 66
1
  0
VERTEX
  8
1
 10
-37.5
 20
12
  0
VERTEX
  8
1
 10
37.5
 20
12
  0
VERTEX
  8
1
 10
37.5
 20
-12
  0
VERTEX
  8
1
 10
-37.5
 20
-12
  0
VERTEX
  8
1
 10
-37.5
 20
12
  0
SEQEND
  8
1
  0
TEXT
  8
1
 40
2.475
 41
0.75
  1
2
  7
STANDARD
 72
2
 73
2
 10
22.1329506238302
 20
14.2912330627441
 11
22.1329506238302
 21
14.2912330627441
  0
TEXT
  8
1
 40
2.475
 41
0.75
  1
6
  7
STANDARD
 73
2
 10
-4.5
 20
14
 11
-4.5
 21
14
  0
LINE
  8
1
 10
22.5
 20
12
 11
22.5
 21
16
  0
LINE
  8
1
 10
-5.5
 20
12
 11
-5.5
 21
16
  0
TEXT
  8
1
 40
2.475
 41
0.75
  1
1
  7
STANDARD
 72
2
 73
2
 10
22.1329506238302
 20
-15.0421002705892
 11
22.1329506238302
 21
-15.0421002705892
  0
TEXT
  8
1
 40
2.475
 41
0.75
  1
3
  7
STANDARD
 73
2
 10
26.6722013155619
 20
-14.8754336039225
 11
26.6722013155619
 21
-14.8754336039225
  0
LINE
  8
1
 10
26.5
 20
-12
 11
26.5
 21
-16
  0
LINE
  8
1
 10
22.5
 20
-12
 11
22.5
 21
-16
  0
POLYLINE
  8
1
 70
1
 66
1
 40
0.5
 41
0.5
  0
VERTEX
  8
1
 10
22.25
 20
-8
 42
1
  0
VERTEX
  8
1
 10
22.75
 20
-8
 42
1
  0
SEQEND
  8
1
  0
LINE
  8
1
 10
26.5
 20
-12
 11
26.5
 21
0
  0
LINE
  8
1
 10
22.5
 20
-12
 11
22.5
 21
0
  0
POLYLINE
  8
1
 66
1
  0
VERTEX
  8
1
 10
-29.5
 20
2
  0
VERTEX
  8
1
 10
-33.5
 20
2
  0
VERTEX
  8
1
 10
-33.5
 20
-8
  0
VERTEX
  8
1
 10
22.5
 20
-8
  0
SEQEND
  8
1
  0
POLYLINE
  8
1
 66
1
  0
VERTEX
  8
1
 10
-29.5
 20
2
  0
VERTEX
  8
1
 10
-29.5
 20
-4
  0
VERTEX
  8
1
 10
-27.5
 20
-4
  0
SEQEND
  8
1
  0
LINE
  8
1
 10
22.5
 20
8
 11
22.5
 21
12
  0
LINE
  8
1
 10
-5.5
 20
6
 11
-5.5
 21
12
  0
LINE
  8
1
 10
-17.5
 20
2
 11
-13.5
 21
2
  0
POLYLINE
  8
1
 66
1
  0
VERTEX
  8
1
 10
-19.5
 20
-4
  0
VERTEX
  8
1
 10
-17.5
 20
-4
  0
VERTEX
  8
1
 10
-17.5
 20
2
  0
SEQEND
  8
1
  0
POLYLINE
  8
1
 70
1
 66
1
 40
0.5
 41
0.5
  0
VERTEX
  8
1
 10
-17.75
 20
2
 42
1
  0
VERTEX
  8
1
 10
-17.25
 20
2
 42
1
  0
SEQEND
  8
1
  0
POLYLINE
  8
1
 70
1
 66
1
 40
0.5
 41
0.5
  0
VERTEX
  8
1
 10
-29.75
 20
2
 42
1
  0
VERTEX
  8
1
 10
-29.25
 20
2
 42
1
  0
SEQEND
  8
1
  0
LINE
  8
1
 10
-19.5
 20
-4
 11
-21.9333333333333
 21
-4
  0
LINE
  8
1
 10
-24.4666666666667
 20
-4
 11
-27.4333333333333
 21
-4
  0
POLYLINE
  8
1
 66
1
  0
VERTEX
  8
1
 10
-23.9333333333333
 20
-6
  0
VERTEX
  8
1
 10
-21.9333333333333
 20
-4
  0
VERTEX
  8
1
 10
-23.9333333333333
 20
-2
  0
SEQEND
  8
1
  0
CIRCLE
  8
1
 10
-23.4
 20
-4
 40
1
  0
LINE
  8
1
 10
-17.5
 20
2
 11
-29.5
 21
2
  0
LINE
  8
1
 10
-24.9666666666667
 20
-1.33333333333333
 11
-21.9666666666667
 21
5.66666666666667
  0
INSERT
  8
1
  2
LCA1
 10
-21.9666666666667
 20
5.66666666666667
 50
66.8014094863518
  0
ARC
  8
1
 10
-23.5
 20
-8
 40
9
 50
70.5289494206614
 51
109.471403199945
  0
ARC
  8
1
 10
-23.5
 20
12
 40
9
 50
250.52860468454
 51
289.47134129249
  0
POLYLINE
  8
1
 66
1
  0
VERTEX
  8
1
 10
33.5
 20
2
  0
VERTEX
  8
1
 10
33.0833333333333
 20
0
  0
VERTEX
  8
1
 10
32.25
 20
4
  0
VERTEX
  8
1
 10
31.4166666666667
 20
0
  0
VERTEX
  8
1
 10
30.5833333333333
 20
4
  0
VERTEX
  8
1
 10
29.75
 20
0
  0
VERTEX
  8
1
 10
28.9166666666667
 20
4
  0
VERTEX
  8
1
 10
28.5
 20
2
  0
SEQEND
  8
1
  0
ARC
  8
1
 10
-1.5
 20
2
 40
4
 50
270
 51
90
  0
ARC
  8
1
 10
-9.5
 20
2
 40
4
 50
90
 51
270
  0
LINE
  8
1
 10
-9.5
 20
6
 11
-1.5
 21
6
  0
LINE
  8
1
 10
-9.5
 20
-2
 11
-1.5
 21
-2
  0
LINE
  8
1
 10
8.50000000000694
 20
2
 11
12.5
 21
2
  0
LINE
  8
1
 10
5.03591140703788
 20
2.00000751835258
 11
2.5
 21
2.00000751835258
  0
LINE
  8
1
 10
5.03591140703788
 20
4.00000751835258
 11
5.03591140703788
 21
7.51835257991236E-06
  0
LINE
  8
1
 10
5.03591140703788
 20
4.00000751835258
 11
8.50001302217564
 21
2.00000751835258
  0
LINE
  8
1
 10
5.03591140703788
 20
7.51835257991236E-06
 11
8.50001302217564
 21
2.00000751835258
  0
LINE
  8
1
 10
14.5
 20
0
 11
14.5
 21
2
  0
INSERT
  8
1
  2
LCBP1
 10
14.5
 20
2
 50
90
  0
POLYLINE
  8
1
 66
1
  0
VERTEX
  8
1
 10
12.5
 20
8
  0
VERTEX
  8
1
 10
20.5
 20
8
  0
VERTEX
  8
1
 10
20.5
 20
0
  0
VERTEX
  8
1
 10
12.5
 20
0
  0
VERTEX
  8
1
 10
12.5
 20
8
  0
SEQEND
  8
1
  0
LINE
  8
1
 10
14.5
 20
8
 11
18.5
 21
0
  0
INSERT
  8
1
  2
LCA1
 10
18.5
 20
0
 50
-63.434948822922
  0
POLYLINE
  8
1
 66
1
  0
VERTEX
  8
1
 10
20.5
 20
8
  0
VERTEX
  8
1
 10
28.5
 20
8
  0
VERTEX
  8
1
 10
28.5
 20
0
  0
VERTEX
  8
1
 10
20.5
 20
0
  0
VERTEX
  8
1
 10
20.5
 20
8
  0
SEQEND
  8
1
  0
LINE
  8
1
 10
26.5
 20
0
 11
26.5
 21
2
  0
INSERT
  8
1
  2
LCBP1
 10
26.5
 20
2
 50
90
  0
LINE
  8
1
 10
22.5
 20
0
 11
22.5
 21
8
  0
INSERT
  8
1
  2
LCA1
 10
22.5
 20
8
 50
90
  0
CIRCLE
  8
CONNECTIONS
 10
-5.5
 20
16
 40
0
  0
CIRCLE
  8
CONNECTIONS
 10
22.5
 20
16
 40
0
  0
CIRCLE
  8
CONNECTIONS
 10
22.5
 20
-16
 40
0
  0
CIRCLE
  8
CONNECTIONS
 10
26.5
 20
-16
 40
0
  0
ENDBLK
  8
0
  0
ENDSEC
  0
SECTION
  2
ENTITIES
  0
INSERT
  8
1
  2
B18108_00992823
 10
37.5
 20
16
  0
ENDSEC
  0
EOF
