  0
SECTION
  2
HEADER
  9
$LIMMIN
 10
0
 20
0
  9
$LIMMAX
 10
52.5
 20
74.25
  9
$EXTMIN
 10
0
 20
100
  9
$EXTMAX
 10
0
 20
104.098431587219
  0
ENDSEC
  0
SECTION
  2
TABLES
  0
TABLE
  2
LTYPE
 70
9
  0
LTYPE
  2
CONTINUOUS
 70
64
  3
Solid line
 72
65
 73
0
 40
0
  0
LTYPE
  2
DASHED
 70
64
  3
__ __ __ __ __ __ __ __ __
 72
65
 73
2
 40
0.75
 49
0.5
 49
-0.25
  0
LTYPE
  2
DOT
 70
64
  3
...........................
 72
65
 73
2
 40
0.25
 49
0
 49
-0.25
  0
LTYPE
  2
DASHDOT
 70
64
  3
__ . __ . __ . __ . __ . __ . 
 72
65
 73
4
 40
1
 49
0.5
 49
-0.25
 49
0
 49
-0.25
  0
ENDTAB
  0
TABLE
  2
LAYER
 70
10
  0
LAYER
  2
1
 70
0
 62
7
  6
CONTINUOUS
  0
LAYER
  2
CONNECTIONS
 70
0
 62
-7
  6
CONTINUOUS
  0
ENDTAB
  0
ENDSEC
  0
SECTION
  2
BLOCKS
  0
BLOCK
  8
0
  2
TRICON
 70
0
 10
0
 20
0
  0
POLYLINE
  8
1
 70
1
 66
1
 40
0.5
 41
0.5
  0
VERTEX
  8
1
 10
-0.25
 20
0
 42
1
  0
VERTEX
  8
1
 10
0.25
 20
0
 42
1
  0
SEQEND
  8
1
  0
ENDBLK
  8
0
  0
BLOCK
  8
0
  2
TRICONSMALL
 70
0
 10
0
 20
0
  0
POLYLINE
  8
1
 70
1
 66
1
 40
0.25
 41
0.25
  0
VERTEX
  8
1
 10
-0.125
 20
0
 42
1
  0
VERTEX
  8
1
 10
0.125
 20
0
 42
1
  0
SEQEND
  8
1
  0
ENDBLK
  8
0
  0
BLOCK
  8
0
  2
TRICONCIRCLE
 70
0
 10
0
 20
0
  0
CIRCLE
  8
1
 10
0
 20
0
 40
0.5
  0
ENDBLK
  8
0
  0
BLOCK
  8
0
  2
LCBP0
 70
0
 10
0
 20
0
  0
LINE
  8
1
 10
0
 20
-0.46875
 11
0
 21
0.46875
  0
ENDBLK
  8
0
  0
BLOCK
  8
0
  2
LCBP1
 70
0
 10
0
 20
0
  0
LINE
  8
1
 10
0
 20
-0.625
 11
0
 21
0.625
  0
ENDBLK
  8
0
  0
BLOCK
  8
0
  2
LCBP2
 70
0
 10
0
 20
0
  0
LINE
  8
1
 10
0
 20
-0.9375
 11
0
 21
0.9375
  0
ENDBLK
  8
0
  0
BLOCK
  8
0
  2
LCA1
 70
0
 10
0
 20
0
  0
SOLID
  8
1
 62
7 
 10
0
 20
0
 11
-1.4
 21
-0.275
 12
-1.4
 22
0.275
 13
-1.4
 23
0.275
  0
ENDBLK
  8
0
  0
BLOCK
  8
0
  2
LCA2
 70
0
 10
0
 20
0
  0
SOLID
  8
1
 62
7 
 10
0
 20
0
 11
-1.65
 21
-0.525
 12
-1.65
 22
0.525
 13
-1.65
 23
0.525
  0
ENDBLK
  8
0
  0
BLOCK
  8
0
  2
LCA3
 70
0
 10
0
 20
0
  0
SOLID
  8
1
 62
7 
 10
0
 20
0
 11
-2.15
 21
-1.15
 12
-2.15
 22
1.15
 13
-2.15
 23
1.15
  0
ENDBLK
  8
0
  0
BLOCK
  8
0
  2
LCA1R
 70
0
 10
0
 20
0
  0
SOLID
  8
1
 62
7 
 10
0
 20
0
 11
1.4
 21
-0.275
 12
1.4
 22
0.275
 13
1.4
 23
0.275
  0
ENDBLK
  8
0
  0
BLOCK
  8
0
  2
LCA2R
 70
0
 10
0
 20
0
  0
SOLID
  8
1
 62
7 
 10
0
 20
0
 11
1.65
 21
-0.525
 12
1.65
 22
0.525
 13
1.65
 23
0.525
  0
ENDBLK
  8
0
  0
BLOCK
  8
0
  2
LCA3R
 70
0
 10
0
 20
0
  0
SOLID
  8
1
 62
7 
 10
0
 20
0
 11
2.15
 21
-1.15
 12
2.15
 22
1.15
 13
2.15
 23
1.15
  0
ENDBLK
  8
0
  0
BLOCK
  8
0
  2
B2183_00992264
 70
0
 10
0
 20
0
  0
POLYLINE
  8
1
 66
1
  0
VERTEX
  8
1
 10
-50
 20
50.7856750488281
  0
VERTEX
  8
1
 10
50
 20
50.7856750488281
  0
VERTEX
  8
1
 10
50
 20
-49.2143249511719
  0
VERTEX
  8
1
 10
-50
 20
-49.2143249511719
  0
VERTEX
  8
1
 10
-50
 20
50.7856750488281
  0
SEQEND
  8
1
  0
TEXT
  8
1
 40
10.8
 41
0.75
  1
7
  7
STANDARD
 73
2
 10
23
 20
-29.5658855438232
 11
23
 21
-29.5658855438232
  0
TEXT
  8
1
 40
10.8
 41
0.75
  1
1
  7
STANDARD
 73
2
 10
31.7232105948799
 20
0.00603002541898334
 11
31.7232105948799
 21
0.00603002541898334
  0
TEXT
  8
1
 40
10.8
 41
0.75
  1
6
  7
STANDARD
 72
1
 73
2
 10
0.795679728190104
 20
-41.5658855438232
 11
0.795679728190104
 21
-41.5658855438232
  0
TEXT
  8
1
 40
10.8
 41
0.75
  1
5
  7
STANDARD
 72
2
 73
2
 10
-22.2719771067301
 20
-29.8420923550924
 11
-22.2719771067301
 21
-29.8420923550924
  0
TEXT
  8
1
 40
10.8
 41
0.75
  1
4
  7
STANDARD
 72
2
 73
3
 10
-30.283096488958
 20
8.50891508275516
 11
-30.283096488958
 21
8.50891508275516
  0
TEXT
  8
1
 40
10.8
 41
0.75
  1
3
  7
STANDARD
 72
2
 73
2
 10
-23.2043202718099
 20
26.4341144561768
 11
-23.2043202718099
 21
26.4341144561768
  0
TEXT
  8
1
 40
10.8
 41
0.75
  1
2
  7
STANDARD
 72
1
 10
-1.04100958036092
 20
36.4825538635254
 11
-1.04100958036092
 21
36.4825538635254
  0
TEXT
  8
1
 40
10.8
 41
0.75
  1
8
  7
STANDARD
 73
2
 10
29
 20
22.4341144561768
 11
29
 21
22.4341144561768
  0
LINE
  8
1
 10
31.7601952374584
 20
17.9205910978806
 11
4.23980476254159
 21
3.65075899977563
  0
ARC
  8
1
 10
19.8
 20
20.1856750488281
 40
4.96789693934968
 50
128.101625118227
 51
317.899810025802
  0
LINE
  8
1
 10
17.5619410758876
 20
24.8666036161319
 11
16.7345184804023
 21
24.0950001891822
  0
LINE
  8
1
 10
24.3134710616968
 20
17.6266559056358
 11
23.4860484662115
 21
16.8550524786861
  0
LINE
  8
1
 10
-4.99999999999999
 20
0.785675048828125
 11
5.00000000000001
 21
0.785675048828125
  0
LINE
  8
1
 10
0
 20
-4.21432495117188
 11
0
 21
5.78567504882813
  0
LINE
  8
1
 10
-5.03616315830054
 20
19.7856750488281
 11
4.96383684169945
 21
19.7856750488281
  0
LINE
  8
1
 10
-0.0361631583005343
 20
14.7856750488281
 11
-0.0361631583005343
 21
24.7856750488281
  0
LINE
  8
1
 10
-18.5
 20
-12.7143249511719
 11
-8.49999999999999
 21
-12.7143249511719
  0
LINE
  8
1
 10
-13.5
 20
-17.7143249511719
 11
-13.5
 21
-7.71432495117188
  0
LINE
  8
1
 10
8.5
 20
-12.7143249511719
 11
18.5
 21
-12.7143249511719
  0
LINE
  8
1
 10
13.5
 20
-17.7143249511719
 11
13.5
 21
-7.71432495117188
  0
LINE
  8
1
 10
-18.4685138599738
 20
14.2856750488281
 11
-8.4685138599738
 21
14.2856750488281
  0
LINE
  8
1
 10
-13.4685138599738
 20
9.28567504882813
 11
-13.4685138599738
 21
19.2856750488281
  0
LINE
  8
1
 10
-5.08864648392322
 20
-18.2020649465454
 11
4.91135351607678
 21
-18.2020649465454
  0
LINE
  8
1
 10
-0.0886464839232227
 20
-23.2020649465455
 11
-0.0886464839232227
 21
-13.2020649465454
  0
LINE
  8
1
 10
-19
 20
-4.18319964756332
 11
-19
 21
5.81680035243668
  0
LINE
  8
1
 10
-24
 20
0.816800352436682
 11
-14
 21
0.816800352436682
  0
LINE
  8
1
 10
19.0915524520009
 20
-4.10583547627019
 11
19.0915524520009
 21
5.8941645237298
  0
LINE
  8
1
 10
14.0915524520009
 20
0.894164523729804
 11
24.091552452001
 21
0.894164523729804
  0
CIRCLE
  8
1
 10
0
 20
0.785675048828125
 40
30
  0
ENDBLK
  8
0
  0
ENDSEC
  0
SECTION
  2
ENTITIES
  0
INSERT
  8
1
  2
B2183_00992264
 10
50
 20
52.0492162704468
  0
ENDSEC
  0
EOF
