  0
SECTION
  2
HEADER
  9
$LIMMIN
 10
0
 20
0
  9
$LIMMAX
 10
52.5
 20
74.25
  9
$EXTMIN
 10
0
 20
40.0000069329712
  9
$EXTMAX
 10
0
 20
12
  0
ENDSEC
  0
SECTION
  2
TABLES
  0
TABLE
  2
LTYPE
 70
9
  0
LTYPE
  2
CONTINUOUS
 70
64
  3
Solid line
 72
65
 73
0
 40
0
  0
LTYPE
  2
DASHED
 70
64
  3
__ __ __ __ __ __ __ __ __
 72
65
 73
2
 40
0.75
 49
0.5
 49
-0.25
  0
LTYPE
  2
DOT
 70
64
  3
...........................
 72
65
 73
2
 40
0.25
 49
0
 49
-0.25
  0
LTYPE
  2
DASHDOT
 70
64
  3
__ . __ . __ . __ . __ . __ . 
 72
65
 73
4
 40
1
 49
0.5
 49
-0.25
 49
0
 49
-0.25
  0
ENDTAB
  0
TABLE
  2
LAYER
 70
10
  0
LAYER
  2
1
 70
0
 62
7
  6
CONTINUOUS
  0
LAYER
  2
CONNECTIONS
 70
0
 62
-7
  6
CONTINUOUS
  0
ENDTAB
  0
ENDSEC
  0
SECTION
  2
BLOCKS
  0
BLOCK
  8
0
  2
TRICON
 70
0
 10
0
 20
0
  0
POLYLINE
  8
1
 70
1
 66
1
 40
0.5
 41
0.5
  0
VERTEX
  8
1
 10
-0.25
 20
0
 42
1
  0
VERTEX
  8
1
 10
0.25
 20
0
 42
1
  0
SEQEND
  8
1
  0
ENDBLK
  8
0
  0
BLOCK
  8
0
  2
TRICONSMALL
 70
0
 10
0
 20
0
  0
POLYLINE
  8
1
 70
1
 66
1
 40
0.25
 41
0.25
  0
VERTEX
  8
1
 10
-0.125
 20
0
 42
1
  0
VERTEX
  8
1
 10
0.125
 20
0
 42
1
  0
SEQEND
  8
1
  0
ENDBLK
  8
0
  0
BLOCK
  8
0
  2
TRICONCIRCLE
 70
0
 10
0
 20
0
  0
CIRCLE
  8
1
 10
0
 20
0
 40
0.5
  0
ENDBLK
  8
0
  0
BLOCK
  8
0
  2
LCBP0
 70
0
 10
0
 20
0
  0
LINE
  8
1
 10
0
 20
-0.46875
 11
0
 21
0.46875
  0
ENDBLK
  8
0
  0
BLOCK
  8
0
  2
LCBP1
 70
0
 10
0
 20
0
  0
LINE
  8
1
 10
0
 20
-0.625
 11
0
 21
0.625
  0
ENDBLK
  8
0
  0
BLOCK
  8
0
  2
LCBP2
 70
0
 10
0
 20
0
  0
LINE
  8
1
 10
0
 20
-0.9375
 11
0
 21
0.9375
  0
ENDBLK
  8
0
  0
BLOCK
  8
0
  2
LCA1
 70
0
 10
0
 20
0
  0
SOLID
  8
1
 62
7 
 10
0
 20
0
 11
-1.4
 21
-0.275
 12
-1.4
 22
0.275
 13
-1.4
 23
0.275
  0
ENDBLK
  8
0
  0
BLOCK
  8
0
  2
LCA2
 70
0
 10
0
 20
0
  0
SOLID
  8
1
 62
7 
 10
0
 20
0
 11
-1.65
 21
-0.525
 12
-1.65
 22
0.525
 13
-1.65
 23
0.525
  0
ENDBLK
  8
0
  0
BLOCK
  8
0
  2
LCA3
 70
0
 10
0
 20
0
  0
SOLID
  8
1
 62
7 
 10
0
 20
0
 11
-2.15
 21
-1.15
 12
-2.15
 22
1.15
 13
-2.15
 23
1.15
  0
ENDBLK
  8
0
  0
BLOCK
  8
0
  2
LCA1R
 70
0
 10
0
 20
0
  0
SOLID
  8
1
 62
7 
 10
0
 20
0
 11
1.4
 21
-0.275
 12
1.4
 22
0.275
 13
1.4
 23
0.275
  0
ENDBLK
  8
0
  0
BLOCK
  8
0
  2
LCA2R
 70
0
 10
0
 20
0
  0
SOLID
  8
1
 62
7 
 10
0
 20
0
 11
1.65
 21
-0.525
 12
1.65
 22
0.525
 13
1.65
 23
0.525
  0
ENDBLK
  8
0
  0
BLOCK
  8
0
  2
LCA3R
 70
0
 10
0
 20
0
  0
SOLID
  8
1
 62
7 
 10
0
 20
0
 11
2.15
 21
-1.15
 12
2.15
 22
1.15
 13
2.15
 23
1.15
  0
ENDBLK
  8
0
  0
BLOCK
  8
0
  2
B1208_00992258
 70
0
 10
0
 20
0
  0
CIRCLE
  8
1
 10
-14.0000034664856
 20
0
 40
6
  0
LINE
  8
1
 10
-4.00000346648562
 20
-1
 11
-8.00000346648562
 21
-1
  0
LINE
  8
1
 10
-4.00000346648562
 20
1
 11
-8.00000346648562
 21
1
  0
POLYLINE
  8
1
 66
1
  0
VERTEX
  8
1
 10
-4.00000346648562
 20
4
  0
VERTEX
  8
1
 10
13.9999965335144
 20
4
  0
VERTEX
  8
1
 10
13.9999965335144
 20
-4
  0
VERTEX
  8
1
 10
-4.00000346648562
 20
-4
  0
VERTEX
  8
1
 10
-4.00000346648562
 20
4
  0
SEQEND
  8
1
  0
POLYLINE
  8
1
 66
1
  0
VERTEX
  8
1
 10
-16.5000034664856
 20
-2.5
  0
VERTEX
  8
1
 10
-16.5000034664856
 20
2.5
  0
VERTEX
  8
1
 10
-14.0000034664856
 20
0
  0
VERTEX
  8
1
 10
-11.5000034664856
 20
2.5
  0
VERTEX
  8
1
 10
-11.5000034664856
 20
-2.5
  0
SEQEND
  8
1
  0
LINE
  8
1
 10
10.5999965335144
 20
-1
 11
11.3999965335144
 21
1
  0
LINE
  8
1
 10
8.59999653351437
 20
-1
 11
9.39999653351437
 21
1
  0
LINE
  8
1
 10
6.59999653351437
 20
-1
 11
7.39999653351437
 21
1
  0
LINE
  8
1
 10
4.59999653351437
 20
-1
 11
5.39999653351437
 21
1
  0
LINE
  8
1
 10
2.59999653351437
 20
-1
 11
3.39999653351437
 21
1
  0
LINE
  8
1
 10
0.599996533514374
 20
-1
 11
1.39999653351438
 21
1
  0
LINE
  8
1
 10
-1.40000346648563
 20
-1
 11
-0.600003466485624
 21
1
  0
LINE
  8
1
 10
-2.00000346648563
 20
-1
 11
11.9999965335144
 21
-1
  0
LINE
  8
1
 10
-2.00000346648563
 20
1
 11
11.9999965335144
 21
1
  0
POLYLINE
  8
1
 66
1
  0
VERTEX
  8
1
 10
14.0000034664856
 20
-2.00002773188537
  0
VERTEX
  8
1
 10
16.0000034664856
 20
-2.00002773188537
  0
VERTEX
  8
1
 10
17.0000034664856
 20
-1.00002773188537
  0
VERTEX
  8
1
 10
18.0000034664856
 20
-2.00002773188537
  0
VERTEX
  8
1
 10
20.0000034664856
 20
-2.00002773188537
  0
VERTEX
  8
1
 10
20.0000034664856
 20
-4.00002773188537
  0
VERTEX
  8
1
 10
18.0000034664856
 20
-4.00002773188537
  0
VERTEX
  8
1
 10
17.0000034664856
 20
-5.00002773188537
  0
VERTEX
  8
1
 10
16.0000034664856
 20
-4.00002773188537
  0
VERTEX
  8
1
 10
13.9999965335144
 20
-4
  0
SEQEND
  8
1
  0
POLYLINE
  8
1
 66
1
  0
VERTEX
  8
1
 10
14.0000034664856
 20
3.99997226811463
  0
VERTEX
  8
1
 10
16.0000034664856
 20
3.99997226811463
  0
VERTEX
  8
1
 10
17.0000034664856
 20
4.99997226811463
  0
VERTEX
  8
1
 10
18.0000034664856
 20
3.99997226811463
  0
VERTEX
  8
1
 10
20.0000034664856
 20
3.99997226811463
  0
VERTEX
  8
1
 10
20.0000034664856
 20
1.99997226811463
  0
VERTEX
  8
1
 10
18.0000034664856
 20
1.99997226811463
  0
VERTEX
  8
1
 10
17.0000034664856
 20
0.999972268114625
  0
VERTEX
  8
1
 10
16.0000034664856
 20
1.99997226811463
  0
VERTEX
  8
1
 10
14.0000034664856
 20
1.99997226811463
  0
SEQEND
  8
1
  0
ENDBLK
  8
0
  0
ENDSEC
  0
SECTION
  2
ENTITIES
  0
INSERT
  8
1
  2
B1208_00992258
 10
20.0000034664856
 20
6
  0
ENDSEC
  0
EOF
