  0
SECTION
  2
HEADER
  9
$LIMMIN
 10
0
 20
0
  9
$LIMMAX
 10
52.5
 20
74.25
  9
$EXTMIN
 10
0
 20
37.8291343053182
  9
$EXTMAX
 10
0
 20
12.9010407924652
  0
ENDSEC
  0
SECTION
  2
TABLES
  0
TABLE
  2
LTYPE
 70
9
  0
LTYPE
  2
CONTINUOUS
 70
64
  3
Solid line
 72
65
 73
0
 40
0
  0
LTYPE
  2
DASHED
 70
64
  3
__ __ __ __ __ __ __ __ __
 72
65
 73
2
 40
0.75
 49
0.5
 49
-0.25
  0
LTYPE
  2
DOT
 70
64
  3
...........................
 72
65
 73
2
 40
0.25
 49
0
 49
-0.25
  0
LTYPE
  2
DASHDOT
 70
64
  3
__ . __ . __ . __ . __ . __ . 
 72
65
 73
4
 40
1
 49
0.5
 49
-0.25
 49
0
 49
-0.25
  0
ENDTAB
  0
TABLE
  2
LAYER
 70
10
  0
LAYER
  2
1
 70
0
 62
7
  6
CONTINUOUS
  0
LAYER
  2
CONNECTIONS
 70
0
 62
-7
  6
CONTINUOUS
  0
ENDTAB
  0
ENDSEC
  0
SECTION
  2
BLOCKS
  0
BLOCK
  8
0
  2
TRICON
 70
0
 10
0
 20
0
  0
POLYLINE
  8
1
 70
1
 66
1
 40
0.5
 41
0.5
  0
VERTEX
  8
1
 10
-0.25
 20
0
 42
1
  0
VERTEX
  8
1
 10
0.25
 20
0
 42
1
  0
SEQEND
  8
1
  0
ENDBLK
  8
0
  0
BLOCK
  8
0
  2
TRICONSMALL
 70
0
 10
0
 20
0
  0
POLYLINE
  8
1
 70
1
 66
1
 40
0.25
 41
0.25
  0
VERTEX
  8
1
 10
-0.125
 20
0
 42
1
  0
VERTEX
  8
1
 10
0.125
 20
0
 42
1
  0
SEQEND
  8
1
  0
ENDBLK
  8
0
  0
BLOCK
  8
0
  2
TRICONCIRCLE
 70
0
 10
0
 20
0
  0
CIRCLE
  8
1
 10
0
 20
0
 40
0.5
  0
ENDBLK
  8
0
  0
BLOCK
  8
0
  2
LCBP0
 70
0
 10
0
 20
0
  0
LINE
  8
1
 10
0
 20
-0.46875
 11
0
 21
0.46875
  0
ENDBLK
  8
0
  0
BLOCK
  8
0
  2
LCBP1
 70
0
 10
0
 20
0
  0
LINE
  8
1
 10
0
 20
-0.625
 11
0
 21
0.625
  0
ENDBLK
  8
0
  0
BLOCK
  8
0
  2
LCBP2
 70
0
 10
0
 20
0
  0
LINE
  8
1
 10
0
 20
-0.9375
 11
0
 21
0.9375
  0
ENDBLK
  8
0
  0
BLOCK
  8
0
  2
LCA1
 70
0
 10
0
 20
0
  0
SOLID
  8
1
 62
7 
 10
0
 20
0
 11
-1.4
 21
-0.275
 12
-1.4
 22
0.275
 13
-1.4
 23
0.275
  0
ENDBLK
  8
0
  0
BLOCK
  8
0
  2
LCA2
 70
0
 10
0
 20
0
  0
SOLID
  8
1
 62
7 
 10
0
 20
0
 11
-1.65
 21
-0.525
 12
-1.65
 22
0.525
 13
-1.65
 23
0.525
  0
ENDBLK
  8
0
  0
BLOCK
  8
0
  2
LCA3
 70
0
 10
0
 20
0
  0
SOLID
  8
1
 62
7 
 10
0
 20
0
 11
-2.15
 21
-1.15
 12
-2.15
 22
1.15
 13
-2.15
 23
1.15
  0
ENDBLK
  8
0
  0
BLOCK
  8
0
  2
LCA1R
 70
0
 10
0
 20
0
  0
SOLID
  8
1
 62
7 
 10
0
 20
0
 11
1.4
 21
-0.275
 12
1.4
 22
0.275
 13
1.4
 23
0.275
  0
ENDBLK
  8
0
  0
BLOCK
  8
0
  2
LCA2R
 70
0
 10
0
 20
0
  0
SOLID
  8
1
 62
7 
 10
0
 20
0
 11
1.65
 21
-0.525
 12
1.65
 22
0.525
 13
1.65
 23
0.525
  0
ENDBLK
  8
0
  0
BLOCK
  8
0
  2
LCA3R
 70
0
 10
0
 20
0
  0
SOLID
  8
1
 62
7 
 10
0
 20
0
 11
2.15
 21
-1.15
 12
2.15
 22
1.15
 13
2.15
 23
1.15
  0
ENDBLK
  8
0
  0
BLOCK
  8
0
  2
B1775_00992257
 70
0
 10
0
 20
0
  0
LINE
  8
1
 10
-15.2557875315348
 20
-0.549479166666668
 11
-10.2557875315348
 21
4.45052083333333
  0
POLYLINE
  8
1
 66
1
  0
VERTEX
  8
1
 10
-15.2557875315348
 20
4.45052083333333
  0
VERTEX
  8
1
 10
-5.25578753153483
 20
4.45052083333333
  0
VERTEX
  8
1
 10
-5.25578753153483
 20
-5.54947916666667
  0
VERTEX
  8
1
 10
-15.2557875315348
 20
-5.54947916666667
  0
VERTEX
  8
1
 10
-15.2557875315348
 20
4.45052083333333
  0
SEQEND
  8
1
  0
LINE
  8
1
 10
-5.25578753153483
 20
-0.549479166666668
 11
-3.25578753153483
 21
-0.549479166666668
  0
LINE
  8
1
 10
-5.25578753153483
 20
3.45052083333333
 11
-3.25578753153483
 21
3.45052083333333
  0
TEXT
  8
1
 40
1.79999985694885
 41
0.75
  1
P
  7
STANDARD
 72
2
 10
-16.3386418024699
 20
2.37526113986969
 11
-16.3386418024699
 21
2.37526113986969
  0
LINE
  8
1
 10
-15.2557875315348
 20
1.95052083333333
 11
-14.2557875315348
 21
1.45052083333333
  0
LINE
  8
1
 10
-14.2557875315348
 20
1.45052083333333
 11
-15.2557875315348
 21
0.950520833333332
  0
LINE
  8
1
 10
-15.2557875315348
 20
1.95052083333333
 11
-15.2557875315348
 21
0.950520833333332
  0
LINE
  8
1
 10
-18.2557875315348
 20
1.45052083333333
 11
-15.2557875315348
 21
1.45052083333333
  0
LINE
  8
1
 10
-6.25578753153483
 20
-0.549479166666668
 11
-5.25578753153483
 21
-0.549479166666668
  0
POLYLINE
  8
1
 66
1
  0
VERTEX
  8
1
 10
-8.25578753153483
 20
0.450520833333332
  0
VERTEX
  8
1
 10
-8.25578753153483
 20
-1.54947916666667
  0
VERTEX
  8
1
 10
-6.25578753153483
 20
-0.549479166666668
  0
VERTEX
  8
1
 10
-8.25578753153483
 20
0.450520833333332
  0
SEQEND
  8
1
  0
TEXT
  8
1
 40
1.57499985694885
 41
0.75
  1
U
  7
STANDARD
 72
2
 73
2
 10
-11.7557875315348
 20
-1.54947916666667
 11
-11.7557875315348
 21
-1.54947916666667
  0
LINE
  8
1
 10
-8.75578753153483
 20
-0.549479166666668
 11
-11.7557875315348
 21
-2.54947916666667
  0
LINE
  8
1
 10
-11.7557875315348
 20
-2.54947916666667
 11
-8.75578753153483
 21
-2.54947916666667
  0
LINE
  8
1
 10
-11.7557875315348
 20
-0.0494791666666679
 11
-11.7557875315348
 21
-2.54947916666667
  0
TEXT
  8
1
 40
1.12499992847443
 41
0.75
  1
L
  7
STANDARD
 72
1
 10
6.9576784769694
 20
0.356445435682931
 11
6.9576784769694
 21
0.356445435682931
  0
TEXT
  8
1
 40
1.57499985694885
 41
0.75
  1
R
  7
STANDARD
 72
1
 10
5.74421246846517
 20
0.238020761807759
 11
5.74421246846517
 21
0.238020761807759
  0
LINE
  8
1
 10
0.144212468465168
 20
3.45052083333333
 11
10.7442124684652
 21
3.45052083333333
  0
LINE
  8
1
 10
4.24421246846517
 20
-0.549479166666668
 11
0.144212468465165
 21
-0.549479166666668
  0
POLYLINE
  8
1
 66
1
  0
VERTEX
  8
1
 10
4.24421246846517
 20
-0.0494791666666679
  0
VERTEX
  8
1
 10
8.24421246846517
 20
-0.0494791666666679
  0
VERTEX
  8
1
 10
8.24421246846517
 20
-1.04947916666667
  0
VERTEX
  8
1
 10
4.24421246846517
 20
-1.04947916666667
  0
VERTEX
  8
1
 10
4.24421246846517
 20
-0.0494791666666679
  0
SEQEND
  8
1
  0
LINE
  8
1
 10
8.24421246846517
 20
-0.549479166666668
 11
9.24421246846517
 21
-0.549479166666668
  0
LINE
  8
1
 10
0.144212468465165
 20
-4.54947916666667
 11
8.99421246846517
 21
-4.54947916666667
  0
CIRCLE
  8
1
 10
9.24421246846518
 20
-4.54947916666666
 40
0.25
  0
LINE
  8
1
 10
9.54421246846516
 20
-4.54947916666667
 11
10.7442124684652
 21
-4.54947916666667
  0
LINE
  8
1
 10
9.24421246846517
 20
-0.549479166666668
 11
9.24421246846517
 21
-4.29947916666667
  0
LINE
  8
1
 10
-5.25578753153483
 20
-4.54947916666667
 11
-0.655787531534832
 21
-4.54947916666667
  0
LINE
  8
1
 10
-3.25578753153483
 20
-0.549479166666668
 11
-0.655787531534832
 21
-0.549479166666668
  0
LINE
  8
1
 10
-3.25578753153483
 20
3.45052083333333
 11
-0.655787531534832
 21
3.45052083333333
  0
LINE
  8
1
 10
-0.755787531534831
 20
-4.54947916666667
 11
-0.655787531534829
 21
-4.54947916666667
  0
CIRCLE
  8
1
 10
-0.255787531534831
 20
-4.54947916666667
 40
0.4
  0
CIRCLE
  8
1
 10
-0.255787531534831
 20
-0.549479166666668
 40
0.4
  0
CIRCLE
  8
1
 10
-0.255787531534831
 20
3.45052083333333
 40
0.4
  0
TEXT
  8
1
 40
1.8
 41
0.75
  1
BU
  7
STANDARD
 10
-5.25578753153483
 20
-4.09999968210856
  0
TEXT
  8
1
 40
1.8
 41
0.75
  1
BK
  7
STANDARD
 10
-5.25578753153483
 20
-0.0999996821085624
  0
TEXT
  8
1
 40
1.8
 41
0.75
  1
BN
  7
STANDARD
 10
-5.25578753153483
 20
3.90000031789144
  0
TEXT
  8
1
 40
1.8
 41
0.75
  1
0V
  7
STANDARD
 10
11.7442124684652
 20
-5.55052019755045
  0
TEXT
  8
1
 40
1.8
 41
0.75
  1
+24V
  7
STANDARD
 10
11.2273036638896
 20
2.62526057561238
  0
ENDBLK
  8
0
  0
ENDSEC
  0
SECTION
  2
ENTITIES
  0
INSERT
  8
1
  2
B1775_00992257
 10
18.9145671526591
 20
6.45052019755045
  0
ENDSEC
  0
EOF
