  0
SECTION
  2
HEADER
  9
$LIMMIN
 10
0
 20
0
  9
$LIMMAX
 10
52.5
 20
74.25
  9
$EXTMIN
 10
0
 20
36.6905959447225
  9
$EXTMAX
 10
0
 20
15.8960061073303
  0
ENDSEC
  0
SECTION
  2
TABLES
  0
TABLE
  2
LTYPE
 70
9
  0
LTYPE
  2
CONTINUOUS
 70
64
  3
Solid line
 72
65
 73
0
 40
0
  0
LTYPE
  2
DASHED
 70
64
  3
__ __ __ __ __ __ __ __ __
 72
65
 73
2
 40
0.75
 49
0.5
 49
-0.25
  0
LTYPE
  2
DOT
 70
64
  3
...........................
 72
65
 73
2
 40
0.25
 49
0
 49
-0.25
  0
LTYPE
  2
DASHDOT
 70
64
  3
__ . __ . __ . __ . __ . __ . 
 72
65
 73
4
 40
1
 49
0.5
 49
-0.25
 49
0
 49
-0.25
  0
ENDTAB
  0
TABLE
  2
LAYER
 70
10
  0
LAYER
  2
1
 70
0
 62
7
  6
CONTINUOUS
  0
LAYER
  2
CONNECTIONS
 70
0
 62
-7
  6
CONTINUOUS
  0
ENDTAB
  0
ENDSEC
  0
SECTION
  2
BLOCKS
  0
BLOCK
  8
0
  2
TRICON
 70
0
 10
0
 20
0
  0
POLYLINE
  8
1
 70
1
 66
1
 40
0.5
 41
0.5
  0
VERTEX
  8
1
 10
-0.25
 20
0
 42
1
  0
VERTEX
  8
1
 10
0.25
 20
0
 42
1
  0
SEQEND
  8
1
  0
ENDBLK
  8
0
  0
BLOCK
  8
0
  2
TRICONSMALL
 70
0
 10
0
 20
0
  0
POLYLINE
  8
1
 70
1
 66
1
 40
0.25
 41
0.25
  0
VERTEX
  8
1
 10
-0.125
 20
0
 42
1
  0
VERTEX
  8
1
 10
0.125
 20
0
 42
1
  0
SEQEND
  8
1
  0
ENDBLK
  8
0
  0
BLOCK
  8
0
  2
TRICONCIRCLE
 70
0
 10
0
 20
0
  0
CIRCLE
  8
1
 10
0
 20
0
 40
0.5
  0
ENDBLK
  8
0
  0
BLOCK
  8
0
  2
LCBP0
 70
0
 10
0
 20
0
  0
LINE
  8
1
 10
0
 20
-0.46875
 11
0
 21
0.46875
  0
ENDBLK
  8
0
  0
BLOCK
  8
0
  2
LCBP1
 70
0
 10
0
 20
0
  0
LINE
  8
1
 10
0
 20
-0.625
 11
0
 21
0.625
  0
ENDBLK
  8
0
  0
BLOCK
  8
0
  2
LCBP2
 70
0
 10
0
 20
0
  0
LINE
  8
1
 10
0
 20
-0.9375
 11
0
 21
0.9375
  0
ENDBLK
  8
0
  0
BLOCK
  8
0
  2
LCA1
 70
0
 10
0
 20
0
  0
SOLID
  8
1
 62
7 
 10
0
 20
0
 11
-1.4
 21
-0.275
 12
-1.4
 22
0.275
 13
-1.4
 23
0.275
  0
ENDBLK
  8
0
  0
BLOCK
  8
0
  2
LCA2
 70
0
 10
0
 20
0
  0
SOLID
  8
1
 62
7 
 10
0
 20
0
 11
-1.65
 21
-0.525
 12
-1.65
 22
0.525
 13
-1.65
 23
0.525
  0
ENDBLK
  8
0
  0
BLOCK
  8
0
  2
LCA3
 70
0
 10
0
 20
0
  0
SOLID
  8
1
 62
7 
 10
0
 20
0
 11
-2.15
 21
-1.15
 12
-2.15
 22
1.15
 13
-2.15
 23
1.15
  0
ENDBLK
  8
0
  0
BLOCK
  8
0
  2
LCA1R
 70
0
 10
0
 20
0
  0
SOLID
  8
1
 62
7 
 10
0
 20
0
 11
1.4
 21
-0.275
 12
1.4
 22
0.275
 13
1.4
 23
0.275
  0
ENDBLK
  8
0
  0
BLOCK
  8
0
  2
LCA2R
 70
0
 10
0
 20
0
  0
SOLID
  8
1
 62
7 
 10
0
 20
0
 11
1.65
 21
-0.525
 12
1.65
 22
0.525
 13
1.65
 23
0.525
  0
ENDBLK
  8
0
  0
BLOCK
  8
0
  2
LCA3R
 70
0
 10
0
 20
0
  0
SOLID
  8
1
 62
7 
 10
0
 20
0
 11
2.15
 21
-1.15
 12
2.15
 22
1.15
 13
2.15
 23
1.15
  0
ENDBLK
  8
0
  0
BLOCK
  8
0
  2
B1783_00992256
 70
0
 10
0
 20
0
  0
LINE
  8
1
 10
-14.686518351237
 20
1.05199639002482
 11
-9.68651835123698
 21
6.05199639002482
  0
POLYLINE
  8
1
 66
1
  0
VERTEX
  8
1
 10
-14.686518351237
 20
6.05199639002482
  0
VERTEX
  8
1
 10
-4.68651835123698
 20
6.05199639002482
  0
VERTEX
  8
1
 10
-4.68651835123698
 20
-3.94800360997518
  0
VERTEX
  8
1
 10
-14.686518351237
 20
-3.94800360997518
  0
VERTEX
  8
1
 10
-14.686518351237
 20
6.05199639002482
  0
SEQEND
  8
1
  0
LINE
  8
1
 10
-4.68651835123698
 20
1.05199639002482
 11
-2.68651835123698
 21
1.05199639002482
  0
LINE
  8
1
 10
-4.68651835123698
 20
5.05199639002482
 11
-2.68651835123698
 21
5.05199639002482
  0
TEXT
  8
1
 40
1.79999985694885
 41
0.75
  1
P
  7
STANDARD
 72
2
 10
-15.769372622172
 20
3.97673669656118
 11
-15.769372622172
 21
3.97673669656118
  0
LINE
  8
1
 10
-14.686518351237
 20
3.55199639002482
 11
-13.686518351237
 21
3.05199639002482
  0
LINE
  8
1
 10
-13.686518351237
 20
3.05199639002482
 11
-14.686518351237
 21
2.55199639002482
  0
LINE
  8
1
 10
-14.686518351237
 20
3.55199639002482
 11
-14.686518351237
 21
2.55199639002482
  0
LINE
  8
1
 10
-17.686518351237
 20
3.05199639002482
 11
-14.686518351237
 21
3.05199639002482
  0
LINE
  8
1
  6
DOT
 10
-10.436518351237
 20
-0.948003609975179
 11
-7.08651126401719
 21
-0.948003609975179
  0
LINE
  8
1
 10
-11.936518351237
 20
-1.04800360997518
 11
-11.436518351237
 21
-1.44800360997518
  0
LINE
  8
1
 10
-11.936518351237
 20
-0.848003609975179
 11
-11.436518351237
 21
-0.448003609975179
  0
SOLID
  8
1
 10
-9.93651835123698
 20
1.05199639002482
 11
-10.545969823451
 21
0.548440133965796
 12
-9.93651835123698
 22
1.05199639002482
 13
-10.1219457753728
 23
0.283480501849196
  0
LINE
  8
1
 10
-12.436518351237
 20
-2.94800360997518
 11
-9.93651835123698
 21
1.05199639002482
  0
LINE
  8
1
 10
-11.936518351237
 20
-1.94800360997518
 11
-11.936518351237
 21
-2.94800360997518
  0
LINE
  8
1
 10
-11.936518351237
 20
0.051996390024821
 11
-11.936518351237
 21
1.05199639002482
  0
POLYLINE
  8
1
 66
1
  0
VERTEX
  8
1
 10
-13.436518351237
 20
0.0519963900248204
  0
VERTEX
  8
1
 10
-10.436518351237
 20
0.0519963900248204
  0
VERTEX
  8
1
 10
-10.436518351237
 20
-1.94800360997518
  0
VERTEX
  8
1
 10
-13.436518351237
 20
-1.94800360997518
  0
VERTEX
  8
1
 10
-13.436518351237
 20
0.0519963900248204
  0
SEQEND
  8
1
  0
LINE
  8
1
 10
-11.936518351237
 20
-0.548003609975179
 11
-11.936518351237
 21
-1.34800360997518
  0
LINE
  8
1
 10
-12.936518351237
 20
-0.948003609975179
 11
-11.936518351237
 21
-0.948003609975179
  0
TEXT
  8
1
 40
1.8
 41
0.75
  1
NPN
  7
STANDARD
 72
1
 73
3
 10
-9.68651835123698
 20
-4.94748309453328
 11
-9.68651835123698
 21
-4.94748309453328
  0
TEXT
  8
1
 40
1.57499985694885
 41
0.75
  1
0V
  7
STANDARD
 10
12.063481648763
 20
-3.56154471238454
  0
TEXT
  8
1
 40
1.57499985694885
 41
0.75
  1
+24V
  7
STANDARD
 10
11.7965728441874
 20
4.6142360607783
  0
TEXT
  8
1
 40
1.57499985694885
 41
0.75
  1
3
  7
STANDARD
 10
-4.68651835123698
 20
-2.36102419694265
  0
TEXT
  8
1
 40
1.57499985694885
 41
0.75
  1
4
  7
STANDARD
 10
-4.68651835123698
 20
1.63897580305735
  0
TEXT
  8
1
 40
1.57499985694885
 41
0.75
  1
1
  7
STANDARD
 10
-4.68651835123698
 20
5.63897580305735
  0
TEXT
  8
1
 40
1.57499985694885
 41
0.75
  1
BU
  7
STANDARD
 10
0.313481648763021
 20
-2.36102419694265
  0
TEXT
  8
1
 40
1.57499985694885
 41
0.75
  1
BK
  7
STANDARD
 10
0.313481648763021
 20
1.63897580305735
  0
TEXT
  8
1
 40
1.57499985694885
 41
0.75
  1
BN
  7
STANDARD
 10
0.313481648763021
 20
5.63897580305735
  0
LINE
  8
1
 10
-6.68651835123698
 20
-2.94800360997518
 11
-4.68651835123698
 21
-2.94800360997518
  0
LINE
  8
1
 10
-6.68651835123698
 20
1.05199639002482
 11
-4.68651835123698
 21
1.05199639002482
  0
LINE
  8
1
 10
-7.68651835123698
 20
0.551996390024821
 11
-6.68651835123698
 21
-1.94800360997518
  0
LINE
  8
1
 10
-7.68651835123698
 20
-1.94800360997518
 11
-5.68651835123698
 21
-1.94800360997518
  0
LINE
  8
1
 10
-6.68651835123698
 20
-1.94800360997518
 11
-6.68651835123698
 21
-2.94800360997518
  0
LINE
  8
1
 10
-6.68651835123698
 20
0.051996390024821
 11
-6.68651835123698
 21
1.05199639002482
  0
LINE
  8
1
 10
0.713481648763017
 20
-2.94800360997518
 11
11.313481648763
 21
-2.94800360997518
  0
LINE
  8
1
 10
4.31348164876302
 20
1.05199639002482
 11
0.713481648763017
 21
1.05199639002482
  0
LINE
  8
1
 10
0.713481648763017
 20
5.05199639002482
 11
9.06348164876302
 21
5.05199639002482
  0
LINE
  8
1
 10
9.31348164876302
 20
1.05199639002482
 11
9.31348164876302
 21
4.80199639002482
  0
LINE
  8
1
 10
9.56348164876302
 20
5.05199639002482
 11
11.313481648763
 21
5.05199639002482
  0
CIRCLE
  8
1
 10
9.31348164876302
 20
5.05199639002482
 40
0.25
  0
LINE
  8
1
 10
8.31348164876302
 20
1.05199639002482
 11
9.31348164876302
 21
1.05199639002482
  0
TEXT
  8
1
 40
1.125
 41
0.75
  1
L
  7
STANDARD
 72
1
 10
7.52694765726725
 20
1.95792102813721
 11
7.52694765726725
 21
1.95792102813721
  0
TEXT
  8
1
 40
1.8
 41
0.75
  1
R
  7
STANDARD
 72
1
 10
5.81348164876302
 20
1.95199639002482
 11
5.81348164876302
 21
1.95199639002482
  0
POLYLINE
  8
1
 66
1
  0
VERTEX
  8
1
 10
4.31348164876302
 20
1.55199639002482
  0
VERTEX
  8
1
 10
8.31348164876302
 20
1.55199639002482
  0
VERTEX
  8
1
 10
8.31348164876302
 20
0.551996390024822
  0
VERTEX
  8
1
 10
4.31348164876302
 20
0.551996390024822
  0
VERTEX
  8
1
 10
4.31348164876302
 20
1.55199639002482
  0
SEQEND
  8
1
  0
LINE
  8
1
 10
-4.68651835123698
 20
-2.94800360997518
 11
-0.0865183512369801
 21
-2.94800360997518
  0
LINE
  8
1
 10
-2.68651835123698
 20
1.05199639002482
 11
-0.0865183512369801
 21
1.05199639002482
  0
LINE
  8
1
 10
-2.68651835123698
 20
5.05199639002482
 11
-0.0865183512369801
 21
5.05199639002482
  0
LINE
  8
1
 10
-0.186518351236979
 20
-2.94800360997518
 11
-0.0865183512369777
 21
-2.94800360997518
  0
CIRCLE
  8
1
 10
0.313481648763021
 20
-2.94800360997518
 40
0.4
  0
CIRCLE
  8
1
 10
0.313481648763021
 20
1.05199639002482
 40
0.4
  0
CIRCLE
  8
1
 10
0.313481648763021
 20
5.05199639002482
 40
0.4
  0
ENDBLK
  8
0
  0
ENDSEC
  0
SECTION
  2
ENTITIES
  0
INSERT
  8
1
  2
B1783_00992256
 10
18.3452979723612
 20
7.9480033715566
  0
ENDSEC
  0
EOF
