  0
SECTION
  2
HEADER
  9
$LIMMIN
 10
0
 20
0
  9
$LIMMAX
 10
52.5
 20
74.25
  9
$EXTMIN
 10
0
 20
84
  9
$EXTMAX
 10
0
 20
33.3722326755524
  0
ENDSEC
  0
SECTION
  2
TABLES
  0
TABLE
  2
LTYPE
 70
9
  0
LTYPE
  2
CONTINUOUS
 70
64
  3
Solid line
 72
65
 73
0
 40
0
  0
LTYPE
  2
DASHED
 70
64
  3
__ __ __ __ __ __ __ __ __
 72
65
 73
2
 40
0.75
 49
0.5
 49
-0.25
  0
LTYPE
  2
DOT
 70
64
  3
...........................
 72
65
 73
2
 40
0.25
 49
0
 49
-0.25
  0
LTYPE
  2
DASHDOT
 70
64
  3
__ . __ . __ . __ . __ . __ . 
 72
65
 73
4
 40
1
 49
0.5
 49
-0.25
 49
0
 49
-0.25
  0
ENDTAB
  0
TABLE
  2
LAYER
 70
10
  0
LAYER
  2
1
 70
0
 62
7
  6
CONTINUOUS
  0
LAYER
  2
CONNECTIONS
 70
0
 62
-7
  6
CONTINUOUS
  0
ENDTAB
  0
ENDSEC
  0
SECTION
  2
BLOCKS
  0
BLOCK
  8
0
  2
TRICON
 70
0
 10
0
 20
0
  0
POLYLINE
  8
1
 70
1
 66
1
 40
0.5
 41
0.5
  0
VERTEX
  8
1
 10
-0.25
 20
0
 42
1
  0
VERTEX
  8
1
 10
0.25
 20
0
 42
1
  0
SEQEND
  8
1
  0
ENDBLK
  8
0
  0
BLOCK
  8
0
  2
TRICONSMALL
 70
0
 10
0
 20
0
  0
POLYLINE
  8
1
 70
1
 66
1
 40
0.25
 41
0.25
  0
VERTEX
  8
1
 10
-0.125
 20
0
 42
1
  0
VERTEX
  8
1
 10
0.125
 20
0
 42
1
  0
SEQEND
  8
1
  0
ENDBLK
  8
0
  0
BLOCK
  8
0
  2
TRICONCIRCLE
 70
0
 10
0
 20
0
  0
CIRCLE
  8
1
 10
0
 20
0
 40
0.5
  0
ENDBLK
  8
0
  0
BLOCK
  8
0
  2
LCBP0
 70
0
 10
0
 20
0
  0
LINE
  8
1
 10
0
 20
-0.46875
 11
0
 21
0.46875
  0
ENDBLK
  8
0
  0
BLOCK
  8
0
  2
LCBP1
 70
0
 10
0
 20
0
  0
LINE
  8
1
 10
0
 20
-0.625
 11
0
 21
0.625
  0
ENDBLK
  8
0
  0
BLOCK
  8
0
  2
LCBP2
 70
0
 10
0
 20
0
  0
LINE
  8
1
 10
0
 20
-0.9375
 11
0
 21
0.9375
  0
ENDBLK
  8
0
  0
BLOCK
  8
0
  2
LCA1
 70
0
 10
0
 20
0
  0
SOLID
  8
1
 62
7 
 10
0
 20
0
 11
-1.4
 21
-0.275
 12
-1.4
 22
0.275
 13
-1.4
 23
0.275
  0
ENDBLK
  8
0
  0
BLOCK
  8
0
  2
LCA2
 70
0
 10
0
 20
0
  0
SOLID
  8
1
 62
7 
 10
0
 20
0
 11
-1.65
 21
-0.525
 12
-1.65
 22
0.525
 13
-1.65
 23
0.525
  0
ENDBLK
  8
0
  0
BLOCK
  8
0
  2
LCA3
 70
0
 10
0
 20
0
  0
SOLID
  8
1
 62
7 
 10
0
 20
0
 11
-2.15
 21
-1.15
 12
-2.15
 22
1.15
 13
-2.15
 23
1.15
  0
ENDBLK
  8
0
  0
BLOCK
  8
0
  2
LCA1R
 70
0
 10
0
 20
0
  0
SOLID
  8
1
 62
7 
 10
0
 20
0
 11
1.4
 21
-0.275
 12
1.4
 22
0.275
 13
1.4
 23
0.275
  0
ENDBLK
  8
0
  0
BLOCK
  8
0
  2
LCA2R
 70
0
 10
0
 20
0
  0
SOLID
  8
1
 62
7 
 10
0
 20
0
 11
1.65
 21
-0.525
 12
1.65
 22
0.525
 13
1.65
 23
0.525
  0
ENDBLK
  8
0
  0
BLOCK
  8
0
  2
LCA3R
 70
0
 10
0
 20
0
  0
SOLID
  8
1
 62
7 
 10
0
 20
0
 11
2.15
 21
-1.15
 12
2.15
 22
1.15
 13
2.15
 23
1.15
  0
ENDBLK
  8
0
  0
BLOCK
  8
0
  2
B33715_00992245
 70
0
 10
0
 20
0
  0
POLYLINE
  8
1
 66
1
  0
VERTEX
  8
1
 10
-42
 20
12.6861162980397
  0
VERTEX
  8
1
 10
42
 20
12.6861162980397
  0
VERTEX
  8
1
 10
42
 20
-7.31388370196025
  0
VERTEX
  8
1
 10
-42
 20
-7.31388370196025
  0
VERTEX
  8
1
 10
-42
 20
12.6861162980397
  0
SEQEND
  8
1
  0
LINE
  8
1
 10
27
 20
8.68611629803975
 11
27
 21
12.6861162980398
  0
LINE
  8
1
 10
27
 20
0.686116298039754
 11
27
 21
-7.31388370196025
  0
LINE
  8
1
 10
-13
 20
8.68611629803975
 11
-13
 21
12.6861162980398
  0
LINE
  8
1
 10
-13
 20
0.686116298039754
 11
-13
 21
-7.31388370196025
  0
LINE
  8
1
 10
-29
 20
0.686116298039754
 11
-29
 21
-7.31388370196025
  0
LINE
  8
1
 10
-1
 20
-1.31388370196025
 11
-1
 21
-7.31388370196025
  0
POLYLINE
  8
1
  6
DOT
 66
1
  0
VERTEX
  8
1
 10
-29
 20
0.686116298039757
  0
VERTEX
  8
1
 10
-25
 20
-3.31388370196025
  0
VERTEX
  8
1
 10
11
 20
-3.31388370196025
  0
VERTEX
  8
1
 10
11
 20
0.686116298039757
  0
SEQEND
  8
1
  0
POLYLINE
  8
1
 70
1
 66
1
 40
0.5
 41
0.5
  0
VERTEX
  8
1
 10
-1.25
 20
-1.31388370196025
 42
1
  0
VERTEX
  8
1
 10
-0.75
 20
-1.31388370196025
 42
1
  0
SEQEND
  8
1
  0
POLYLINE
  8
1
 66
1
  0
VERTEX
  8
1
 10
-3
 20
0.686116298039757
  0
VERTEX
  8
1
 10
-3
 20
-1.31388370196024
  0
VERTEX
  8
1
 10
37
 20
-1.31388370196024
  0
VERTEX
  8
1
 10
37
 20
0.686116298039757
  0
SEQEND
  8
1
  0
TEXT
  8
1
 40
2.475
 41
0.75
  1
11
  7
STANDARD
 73
3
 10
-12
 20
-8.2270677725474
 11
-12
 21
-8.2270677725474
  0
TEXT
  8
1
 40
2.475
 41
0.75
  1
112/114
  7
STANDARD
 72
2
 73
3
 10
-29.6347783406575
 20
-8.18816787401835
 11
-29.6347783406575
 21
-8.18816787401835
  0
TEXT
  8
1
 40
2.475
 41
0.75
  1
1
  7
STANDARD
 73
3
 10
-0.595527648925781
 20
-8.18816787401835
 11
-0.595527648925781
 21
-8.18816787401835
  0
TEXT
  8
1
 40
2.475
 41
0.75
  1
11
  7
STANDARD
 73
3
 10
27.4044723510742
 20
-8.18816787401835
 11
27.4044723510742
 21
-8.18816787401835
  0
TEXT
  8
1
 40
2.475
 41
0.75
  1
2
  7
STANDARD
 72
2
 73
2
 10
26.4607493082682
 20
16.6194496313731
 11
26.4607493082682
 21
16.6194496313731
  0
TEXT
  8
1
 40
2.475
 41
0.75
  1
4
  7
STANDARD
 72
2
 73
2
 10
-13.5392506917318
 20
16.6194496313731
 11
-13.5392506917318
 21
16.6194496313731
  0
LINE
  8
1
 10
27
 20
-7.31388370196025
 11
27
 21
-11.3138837019602
  0
LINE
  8
1
 10
-1
 20
-7.31388370196025
 11
-1
 21
-11.3138837019602
  0
LINE
  8
1
 10
-13
 20
12.6861162980398
 11
-13
 21
16.6861162980398
  0
LINE
  8
1
 10
27
 20
12.6861162980398
 11
27
 21
16.6861162980398
  0
LINE
  8
1
 10
-13
 20
-7.31388370196025
 11
-13
 21
-11.3138837019602
  0
LINE
  8
1
 10
-29
 20
-7.31388370196025
 11
-29
 21
-11.3138837019602
  0
TEXT
  8
1
 40
2.475
 41
0.75
  1
(3)
  7
STANDARD
 73
2
 10
27.5676568349202
 20
-14.3138837019602
 11
27.5676568349202
 21
-14.3138837019602
  0
TEXT
  8
1
 40
2.475
 41
0.75
  1
(5)
  7
STANDARD
 73
2
 10
-12.0323431650798
 20
-14.3138837019602
 11
-12.0323431650798
 21
-14.3138837019602
  0
TEXT
  8
1
 40
2.475
 41
0.75
  1
(14)
  7
STANDARD
 73
2
 10
-37.8323431650797
 20
-14.3138837019602
 11
-37.8323431650797
 21
-14.3138837019602
  0
TEXT
  8
1
 40
2.475
 41
0.75
  1
112
  7
STANDARD
 72
2
 73
2
 10
6.7
 20
7.98611629803976
 11
6.7
 21
7.98611629803976
  0
TEXT
  8
1
 40
2.475
 41
0.75
  1
114
  7
STANDARD
 72
2
 73
2
 10
-34
 20
7.98611629803976
 11
-34
 21
7.98611629803976
  0
LINE
  8
1
 10
7
 20
0.686116298039752
 11
9
 21
4.68611629803975
  0
POLYLINE
  8
1
 66
1
  0
VERTEX
  8
1
 10
5
 20
4.68611629803976
  0
VERTEX
  8
1
 10
11
 20
4.68611629803976
  0
VERTEX
  8
1
 10
11
 20
0.686116298039757
  0
VERTEX
  8
1
 10
5
 20
0.686116298039757
  0
VERTEX
  8
1
 10
5
 20
4.68611629803976
  0
SEQEND
  8
1
  0
LINE
  8
1
 10
-33
 20
0.686116298039757
 11
-31
 21
4.68611629803976
  0
POLYLINE
  8
1
 66
1
  0
VERTEX
  8
1
 10
-35
 20
4.68611629803976
  0
VERTEX
  8
1
 10
-29
 20
4.68611629803976
  0
VERTEX
  8
1
 10
-29
 20
0.686116298039757
  0
VERTEX
  8
1
 10
-35
 20
0.686116298039757
  0
VERTEX
  8
1
 10
-35
 20
4.68611629803976
  0
SEQEND
  8
1
  0
POLYLINE
  8
1
 66
1
  0
VERTEX
  8
1
 10
31
 20
4.68611629803977
  0
VERTEX
  8
1
 10
37
 20
4.68611629803977
  0
VERTEX
  8
1
 10
37
 20
0.686116298039771
  0
VERTEX
  8
1
 10
31
 20
0.686116298039771
  0
VERTEX
  8
1
 10
31
 20
4.68611629803977
  0
SEQEND
  8
1
  0
LINE
  8
1
 10
36.9872069373381
 20
4.65378851685541
 11
33.5692317181956
 21
2.68611629803975
  0
LINE
  8
1
 10
33.5358983848622
 20
2.68611629803975
 11
31
 21
2.68611629803975
  0
LINE
  8
1
 10
37
 20
0.686116298039754
 11
33.5358983848622
 21
2.68611629803975
  0
POLYLINE
  8
1
 66
1
  0
VERTEX
  8
1
 10
-9
 20
4.68729575274299
  0
VERTEX
  8
1
 10
-2.99823081794513
 20
4.68729575274299
  0
VERTEX
  8
1
 10
-2.99823081794513
 20
0.686116298039742
  0
VERTEX
  8
1
 10
-9
 20
0.686116298039742
  0
VERTEX
  8
1
 10
-9
 20
4.68729575274299
  0
SEQEND
  8
1
  0
LINE
  8
1
 10
-3.05393994833184
 20
4.63703489891161
 11
-6.48102913563581
 21
2.68611629803974
  0
LINE
  8
1
 10
-6.46410161513775
 20
2.68611629803975
 11
-9
 21
2.68611629803975
  0
LINE
  8
1
 10
-3
 20
0.686116298039754
 11
-6.46410161513775
 21
2.68611629803975
  0
LINE
  8
1
 10
7
 20
8.18611629803975
 11
11
 21
8.18611629803975
  0
LINE
  8
1
 10
7
 20
8.68611629803975
 11
7
 21
5.68611629803975
  0
LINE
  8
1
 10
7
 20
6.18611629803975
 11
11
 21
6.18611629803975
  0
LINE
  8
1
 10
11
 20
4.68611629803975
 11
11
 21
8.68611629803975
  0
LINE
  8
1
 10
-33
 20
8.18611629803975
 11
-29
 21
8.18611629803975
  0
LINE
  8
1
 10
-33
 20
8.68611629803975
 11
-33
 21
5.68611629803975
  0
LINE
  8
1
 10
-33
 20
6.18611629803975
 11
-29
 21
6.18611629803975
  0
LINE
  8
1
 10
-29
 20
4.68611629803975
 11
-29
 21
8.68611629803975
  0
POLYLINE
  8
1
 66
1
  0
VERTEX
  8
1
 10
11
 20
4.68611629803976
  0
VERTEX
  8
1
 10
15
 20
4.68611629803976
  0
VERTEX
  8
1
 10
15
 20
0.686116298039757
  0
VERTEX
  8
1
 10
11
 20
0.686116298039757
  0
VERTEX
  8
1
 10
11
 20
4.68611629803976
  0
SEQEND
  8
1
  0
LINE
  8
1
 10
11
 20
4.68611629803975
 11
11
 21
0.686116298039754
  0
LINE
  8
1
 10
11
 20
4.68611629803975
 11
14.4641016151378
 21
2.68611629803975
  0
LINE
  8
1
 10
11
 20
0.686116298039754
 11
14.4641016151378
 21
2.68611629803975
  0
POLYLINE
  8
1
 66
1
  0
VERTEX
  8
1
 10
-29
 20
4.68611629803976
  0
VERTEX
  8
1
 10
-25
 20
4.68611629803976
  0
VERTEX
  8
1
 10
-25
 20
0.686116298039757
  0
VERTEX
  8
1
 10
-29
 20
0.686116298039757
  0
VERTEX
  8
1
 10
-29
 20
4.68611629803976
  0
SEQEND
  8
1
  0
LINE
  8
1
 10
-29
 20
4.68611629803975
 11
-29
 21
0.686116298039754
  0
LINE
  8
1
 10
-29
 20
4.68611629803975
 11
-25.5358983848622
 21
2.68611629803975
  0
LINE
  8
1
 10
-29
 20
0.686116298039754
 11
-25.5358983848622
 21
2.68611629803975
  0
LINE
  8
1
 10
27
 20
8.68611629803975
 11
27
 21
6.68611629803975
  0
INSERT
  8
1
  2
LCBP1
 10
27
 20
6.68611629803975
 50
-90
  0
LINE
  8
1
 10
27
 20
0.686116298039754
 11
27
 21
2.68611629803975
  0
INSERT
  8
1
  2
LCBP1
 10
27
 20
2.68611629803975
 50
90
  0
POLYLINE
  8
1
 66
1
  0
VERTEX
  8
1
 10
23
 20
8.68611629803975
  0
VERTEX
  8
1
 10
31
 20
8.68611629803975
  0
VERTEX
  8
1
 10
31
 20
0.686116298039749
  0
VERTEX
  8
1
 10
23
 20
0.686116298039749
  0
VERTEX
  8
1
 10
23
 20
8.68611629803975
  0
SEQEND
  8
1
  0
LINE
  8
1
 10
-13
 20
8.68611629803975
 11
-13
 21
6.68611629803975
  0
INSERT
  8
1
  2
LCBP1
 10
-13
 20
6.68611629803975
 50
-90
  0
LINE
  8
1
 10
-13
 20
0.686116298039754
 11
-13
 21
2.68611629803975
  0
INSERT
  8
1
  2
LCBP1
 10
-13
 20
2.68611629803975
 50
90
  0
POLYLINE
  8
1
 66
1
  0
VERTEX
  8
1
 10
-17
 20
8.68611629803975
  0
VERTEX
  8
1
 10
-9
 20
8.68611629803975
  0
VERTEX
  8
1
 10
-9
 20
0.686116298039749
  0
VERTEX
  8
1
 10
-17
 20
0.686116298039749
  0
VERTEX
  8
1
 10
-17
 20
8.68611629803975
  0
SEQEND
  8
1
  0
POLYLINE
  8
1
 66
1
  0
VERTEX
  8
1
 10
15
 20
8.68611629803975
  0
VERTEX
  8
1
 10
23
 20
8.68611629803975
  0
VERTEX
  8
1
 10
23
 20
0.686116298039749
  0
VERTEX
  8
1
 10
15
 20
0.686116298039749
  0
VERTEX
  8
1
 10
15
 20
8.68611629803975
  0
SEQEND
  8
1
  0
LINE
  8
1
 10
19
 20
0.686116298039754
 11
19
 21
8.68611629803975
  0
INSERT
  8
1
  2
LCA1
 10
19
 20
8.68611629803975
 50
90
  0
INSERT
  8
1
  2
LCA1R
 10
19
 20
0.686116298039754
 50
90
  0
POLYLINE
  8
1
 66
1
  0
VERTEX
  8
1
 10
-25
 20
8.68611629803975
  0
VERTEX
  8
1
 10
-17
 20
8.68611629803975
  0
VERTEX
  8
1
 10
-17
 20
0.686116298039749
  0
VERTEX
  8
1
 10
-25
 20
0.686116298039749
  0
VERTEX
  8
1
 10
-25
 20
8.68611629803975
  0
SEQEND
  8
1
  0
LINE
  8
1
 10
-21
 20
0.686116298039754
 11
-21
 21
8.68611629803975
  0
INSERT
  8
1
  2
LCA1
 10
-21
 20
8.68611629803975
 50
90
  0
INSERT
  8
1
  2
LCA1R
 10
-21
 20
0.686116298039754
 50
90
  0
CIRCLE
  8
CONNECTIONS
 10
-29
 20
-11.3138837019602
 40
0
  0
CIRCLE
  8
CONNECTIONS
 10
-13
 20
-11.3805503686269
 40
0
  0
CIRCLE
  8
CONNECTIONS
 10
-13
 20
16.6194496313731
 40
0
  0
CIRCLE
  8
CONNECTIONS
 10
27
 20
16.6194496313731
 40
0
  0
CIRCLE
  8
CONNECTIONS
 10
-1
 20
-11.3138837019602
 40
0
  0
CIRCLE
  8
CONNECTIONS
 10
27
 20
-11.3138837019602
 40
0
  0
CIRCLE
  8
CONNECTIONS
 10
5.02712764739991
 20
2.58611629803975
 40
0
  0
CIRCLE
  8
CONNECTIONS
 10
-34.9152482350667
 20
2.68611629803975
 40
0
  0
ENDBLK
  8
0
  0
ENDSEC
  0
SECTION
  2
ENTITIES
  0
INSERT
  8
1
  2
B33715_00992245
 10
42
 20
16.6861163775126
  0
ENDSEC
  0
EOF
