  0
SECTION
  2
HEADER
  9
$LIMMIN
 10
0
 20
0
  9
$LIMMAX
 10
52.5
 20
74.25
  9
$EXTMIN
 10
0
 20
54
  9
$EXTMAX
 10
0
 20
43.8561945286667
  0
ENDSEC
  0
SECTION
  2
TABLES
  0
TABLE
  2
LTYPE
 70
9
  0
LTYPE
  2
CONTINUOUS
 70
64
  3
Solid line
 72
65
 73
0
 40
0
  0
LTYPE
  2
DASHED
 70
64
  3
__ __ __ __ __ __ __ __ __
 72
65
 73
2
 40
0.75
 49
0.5
 49
-0.25
  0
LTYPE
  2
DOT
 70
64
  3
...........................
 72
65
 73
2
 40
0.25
 49
0
 49
-0.25
  0
LTYPE
  2
DASHDOT
 70
64
  3
__ . __ . __ . __ . __ . __ . 
 72
65
 73
4
 40
1
 49
0.5
 49
-0.25
 49
0
 49
-0.25
  0
ENDTAB
  0
TABLE
  2
LAYER
 70
10
  0
LAYER
  2
1
 70
0
 62
7
  6
CONTINUOUS
  0
LAYER
  2
CONNECTIONS
 70
0
 62
-7
  6
CONTINUOUS
  0
ENDTAB
  0
ENDSEC
  0
SECTION
  2
BLOCKS
  0
BLOCK
  8
0
  2
TRICON
 70
0
 10
0
 20
0
  0
POLYLINE
  8
1
 70
1
 66
1
 40
0.5
 41
0.5
  0
VERTEX
  8
1
 10
-0.25
 20
0
 42
1
  0
VERTEX
  8
1
 10
0.25
 20
0
 42
1
  0
SEQEND
  8
1
  0
ENDBLK
  8
0
  0
BLOCK
  8
0
  2
TRICONSMALL
 70
0
 10
0
 20
0
  0
POLYLINE
  8
1
 70
1
 66
1
 40
0.25
 41
0.25
  0
VERTEX
  8
1
 10
-0.125
 20
0
 42
1
  0
VERTEX
  8
1
 10
0.125
 20
0
 42
1
  0
SEQEND
  8
1
  0
ENDBLK
  8
0
  0
BLOCK
  8
0
  2
TRICONCIRCLE
 70
0
 10
0
 20
0
  0
CIRCLE
  8
1
 10
0
 20
0
 40
0.5
  0
ENDBLK
  8
0
  0
BLOCK
  8
0
  2
LCBP0
 70
0
 10
0
 20
0
  0
LINE
  8
1
 10
0
 20
-0.46875
 11
0
 21
0.46875
  0
ENDBLK
  8
0
  0
BLOCK
  8
0
  2
LCBP1
 70
0
 10
0
 20
0
  0
LINE
  8
1
 10
0
 20
-0.625
 11
0
 21
0.625
  0
ENDBLK
  8
0
  0
BLOCK
  8
0
  2
LCBP2
 70
0
 10
0
 20
0
  0
LINE
  8
1
 10
0
 20
-0.9375
 11
0
 21
0.9375
  0
ENDBLK
  8
0
  0
BLOCK
  8
0
  2
LCA1
 70
0
 10
0
 20
0
  0
SOLID
  8
1
 62
7 
 10
0
 20
0
 11
-1.4
 21
-0.275
 12
-1.4
 22
0.275
 13
-1.4
 23
0.275
  0
ENDBLK
  8
0
  0
BLOCK
  8
0
  2
LCA2
 70
0
 10
0
 20
0
  0
SOLID
  8
1
 62
7 
 10
0
 20
0
 11
-1.65
 21
-0.525
 12
-1.65
 22
0.525
 13
-1.65
 23
0.525
  0
ENDBLK
  8
0
  0
BLOCK
  8
0
  2
LCA3
 70
0
 10
0
 20
0
  0
SOLID
  8
1
 62
7 
 10
0
 20
0
 11
-2.15
 21
-1.15
 12
-2.15
 22
1.15
 13
-2.15
 23
1.15
  0
ENDBLK
  8
0
  0
BLOCK
  8
0
  2
LCA1R
 70
0
 10
0
 20
0
  0
SOLID
  8
1
 62
7 
 10
0
 20
0
 11
1.4
 21
-0.275
 12
1.4
 22
0.275
 13
1.4
 23
0.275
  0
ENDBLK
  8
0
  0
BLOCK
  8
0
  2
LCA2R
 70
0
 10
0
 20
0
  0
SOLID
  8
1
 62
7 
 10
0
 20
0
 11
1.65
 21
-0.525
 12
1.65
 22
0.525
 13
1.65
 23
0.525
  0
ENDBLK
  8
0
  0
BLOCK
  8
0
  2
LCA3R
 70
0
 10
0
 20
0
  0
SOLID
  8
1
 62
7 
 10
0
 20
0
 11
2.15
 21
-1.15
 12
2.15
 22
1.15
 13
2.15
 23
1.15
  0
ENDBLK
  8
0
  0
BLOCK
  8
0
  2
B8586_00992227
 70
0
 10
0
 20
0
  0
POLYLINE
  8
1
 66
1
  0
VERTEX
  8
1
 10
-27
 20
13.0996701395872
  0
VERTEX
  8
1
 10
27
 20
13.0996701395872
  0
VERTEX
  8
1
 10
27
 20
-17.9003298604128
  0
VERTEX
  8
1
 10
-27
 20
-17.9003298604128
  0
VERTEX
  8
1
 10
-27
 20
13.0996701395872
  0
SEQEND
  8
1
  0
TEXT
  8
1
 40
2.475
 41
0.75
  1
2
  7
STANDARD
 72
2
 73
3
 10
14.85
 20
18.4531527356667
 11
14.85
 21
18.4531527356667
  0
TEXT
  8
1
 40
2.475
 41
0.75
  1
14
  7
STANDARD
 72
2
 73
2
 10
-1.19201233129832
 20
-20.886084933035
 11
-1.19201233129832
 21
-20.886084933035
  0
TEXT
  8
1
 40
2.475
 41
0.75
  1
4
  7
STANDARD
 72
2
 73
3
 10
6.85
 20
18.4531527356667
 11
6.85
 21
18.4531527356667
  0
TEXT
  8
1
 40
2.475
 41
0.75
  1
3
  7
STANDARD
 72
2
 73
2
 10
18.85
 20
-20.9280972643333
 11
18.85
 21
-20.9280972643333
  0
LINE
  8
1
 10
19
 20
13.0719027356667
 11
19
 21
17.0719027356667
  0
LINE
  8
1
 10
7
 20
13.0719027356667
 11
7
 21
17.0719027356667
  0
LINE
  8
1
 10
15
 20
13.0719027356667
 11
15
 21
17.0719027356667
  0
LINE
  8
1
 10
11
 20
13.0719027356667
 11
11
 21
17.0719027356667
  0
LINE
  8
1
 10
3
 20
13.0719027356667
 11
3
 21
17.0719027356667
  0
LINE
  8
1
 10
-1
 20
13.0719027356667
 11
-1
 21
17.0719027356667
  0
TEXT
  8
1
 40
2.475
 41
0.75
  1
5
  7
STANDARD
 72
2
 73
2
 10
2.9253702498575
 20
-20.8730222383793
 11
2.9253702498575
 21
-20.8730222383793
  0
TEXT
  8
1
 40
2.475
 41
0.75
  1
1
  7
STANDARD
 72
2
 73
2
 10
11.0253301686238
 20
-20.8404321800215
 11
11.0253301686238
 21
-20.8404321800215
  0
TEXT
  8
1
 40
2.475
 41
0.75
  1
12
  7
STANDARD
 73
2
 10
23.1847789764404
 20
-20.9280972643333
 11
23.1847789764404
 21
-20.9280972643333
  0
LINE
  8
1
 10
23
 20
13.0719027356667
 11
23
 21
17.0719027356667
  0
LINE
  8
1
 10
-1
 20
-17.9280972643333
 11
-1
 21
-21.9280972643333
  0
LINE
  8
1
 10
3
 20
-17.9280972643333
 11
3
 21
-21.9280972643333
  0
LINE
  8
1
 10
7
 20
-17.9280972643333
 11
7
 21
-21.9280972643333
  0
LINE
  8
1
 10
11
 20
-17.9280972643333
 11
11
 21
-21.9280972643333
  0
LINE
  8
1
 10
15
 20
-17.9280972643333
 11
15
 21
-21.9280972643333
  0
LINE
  8
1
 10
19
 20
-17.9280972643333
 11
19
 21
-21.9280972643333
  0
LINE
  8
1
 10
23
 20
-17.9280972643333
 11
23
 21
-21.9280972643333
  0
LINE
  8
1
 10
-5
 20
0.0996701395871611
 11
-5
 21
13.0996701395872
  0
LINE
  8
1
 10
-1
 20
13.0996701395872
 11
-1
 21
-17.9003298604128
  0
LINE
  8
1
 10
3
 20
13.0996701395872
 11
3
 21
-17.9003298604128
  0
LINE
  8
1
 10
7
 20
13.0996701395872
 11
7
 21
-17.9003298604128
  0
LINE
  8
1
 10
11
 20
13.0996701395872
 11
11
 21
0.0996701395871611
  0
LINE
  8
1
 10
15
 20
13.0996701395872
 11
15
 21
-17.9003298604128
  0
LINE
  8
1
 10
19
 20
13.0996701395872
 11
19
 21
-17.9003298604128
  0
LINE
  8
1
 10
23
 20
13.0996701395872
 11
23
 21
-17.9003298604128
  0
LINE
  8
1
 10
11
 20
-13.9003298604128
 11
11
 21
-17.9003298604128
  0
LINE
  8
1
 10
-23
 20
-13.9003298604128
 11
-23
 21
0.0996701395871611
  0
LINE
  8
1
 10
11
 20
-13.9003298604128
 11
-23
 21
-13.9003298604128
  0
LINE
  8
1
 10
-5
 20
-9.90032986041284
 11
-5
 21
0.0996701395871611
  0
LINE
  8
1
 10
-23
 20
0.0996701395871611
 11
-17
 21
0.0996701395871611
  0
LINE
  8
1
 10
-17.5
 20
-9.90032986041284
 11
-20
 21
-9.90032986041284
  0
LINE
  8
1
 10
-20
 20
0.0996701395871611
 11
-20
 21
-9.90032986041284
  0
POLYLINE
  8
1
 70
1
 66
1
 40
0.6
 41
0.6
  0
VERTEX
  8
1
 10
-20.3
 20
0.0996701395871611
 42
1
  0
VERTEX
  8
1
 10
-19.7
 20
0.0996701395871611
 42
1
  0
SEQEND
  8
1
  0
LINE
  8
1
 10
11
 20
0.0996701395871611
 11
-9
 21
0.0996701395871611
  0
LINE
  8
1
 10
-5
 20
-9.90032986041284
 11
-9
 21
-9.90032986041284
  0
POLYLINE
  8
1
 70
1
 66
1
 40
0.6
 41
0.6
  0
VERTEX
  8
1
 10
-5.3
 20
0.0996701395871611
 42
1
  0
VERTEX
  8
1
 10
-4.7
 20
0.0996701395871611
 42
1
  0
SEQEND
  8
1
  0
LINE
  8
1
 10
-3.67480335221584
 20
17.6500146359525
 11
-6.50323047696203
 21
20.4784417606987
  0
INSERT
  8
1
  2
LCA1
 10
-6.50323047696203
 20
20.4784417606987
 50
135
  0
LINE
  8
1
 10
-5
 20
16.271243014841
 11
-5
 21
13.0996701395872
  0
CIRCLE
  8
1
 10
-5
 20
19.0996701395872
 40
2.82842712474619
  0
LINE
  8
1
 10
-14.6
 20
-9.90032986041284
 11
-18
 21
-9.90032986041284
  0
LINE
  8
1
 10
-9
 20
-9.90032986041284
 11
-12
 21
-9.90032986041284
  0
POLYLINE
  8
1
 66
1
  0
VERTEX
  8
1
 10
-14
 20
-11.9003298604128
  0
VERTEX
  8
1
 10
-12
 20
-9.90032986041284
  0
VERTEX
  8
1
 10
-14
 20
-7.90032986041284
  0
SEQEND
  8
1
  0
CIRCLE
  8
1
 10
-13.4666666666667
 20
-9.90032986041284
 40
1
  0
LINE
  8
1
 10
-19.4449339829555
 20
7.37796236439108
 11
-10.5550668493783
 21
9.8213743941855
  0
INSERT
  8
1
  2
LCA1
 10
-10.5550668493783
 20
9.8213743941855
 50
15.3684528725217
  0
POLYLINE
  8
1
 66
1
  0
VERTEX
  8
1
 10
-15
 20
6.09967013958716
  0
VERTEX
  8
1
 10
-13
 20
6.51633680625386
  0
VERTEX
  8
1
 10
-17
 20
7.34967013958716
  0
VERTEX
  8
1
 10
-13
 20
8.18300347292053
  0
VERTEX
  8
1
 10
-17
 20
9.01633680625386
  0
VERTEX
  8
1
 10
-13
 20
9.84967013958716
  0
VERTEX
  8
1
 10
-17
 20
10.6830034729205
  0
VERTEX
  8
1
 10
-15
 20
11.0996701395872
  0
SEQEND
  8
1
  0
POLYLINE
  8
1
 66
1
  0
VERTEX
  8
1
 10
-17
 20
5.09967013958716
  0
VERTEX
  8
1
 10
-19
 20
4.09967013958716
  0
VERTEX
  8
1
 10
-17
 20
3.09967013958716
  0
SEQEND
  8
1
  0
POLYLINE
  8
1
  6
DOT
 66
1
  0
VERTEX
  8
1
 10
-15
 20
-1.90032986041284
  0
VERTEX
  8
1
 10
-15
 20
-5.90032986041284
  0
VERTEX
  8
1
 10
-7
 20
-5.90032986041284
  0
VERTEX
  8
1
 10
-7
 20
-1.90032986041284
  0
VERTEX
  8
1
 10
-9
 20
0.0996701395871611
  0
SEQEND
  8
1
  0
POLYLINE
  8
1
 66
1
  0
VERTEX
  8
1
 10
-17
 20
-1.90032986041284
  0
VERTEX
  8
1
 10
-9
 20
-1.90032986041284
  0
VERTEX
  8
1
 10
-9
 20
6.09967013958716
  0
VERTEX
  8
1
 10
-17
 20
6.09967013958716
  0
VERTEX
  8
1
 10
-17
 20
-1.90032986041284
  0
SEQEND
  8
1
  0
LINE
  8
1
 10
-9
 20
0.0996701395871611
 11
-17
 21
0.0996701395871611
  0
INSERT
  8
1
  2
LCA1
 10
-17
 20
0.0996701395871611
 50
-180
  0
INSERT
  8
1
  2
LCA1R
 10
-9
 20
0.0996701395871611
 50
-180
  0
CIRCLE
  8
CONNECTIONS
 10
-1
 20
17.0719027356667
 40
0
  0
CIRCLE
  8
CONNECTIONS
 10
2.87632792886382
 20
17.1955748068028
 40
0
  0
CIRCLE
  8
CONNECTIONS
 10
7
 20
17.0719027356667
 40
0
  0
CIRCLE
  8
CONNECTIONS
 10
11
 20
17.0719027356667
 40
0
  0
CIRCLE
  8
CONNECTIONS
 10
15
 20
17.0719027356667
 40
0
  0
CIRCLE
  8
CONNECTIONS
 10
19
 20
17.0719027356667
 40
0
  0
CIRCLE
  8
CONNECTIONS
 10
23
 20
17.0719027356667
 40
0
  0
CIRCLE
  8
CONNECTIONS
 10
-1
 20
-21.9280972643333
 40
0
  0
CIRCLE
  8
CONNECTIONS
 10
3
 20
-21.9280972643333
 40
0
  0
CIRCLE
  8
CONNECTIONS
 10
7
 20
-21.9280972643333
 40
0
  0
CIRCLE
  8
CONNECTIONS
 10
11
 20
-21.9280972643333
 40
0
  0
CIRCLE
  8
CONNECTIONS
 10
15
 20
-21.9280972643333
 40
0
  0
CIRCLE
  8
CONNECTIONS
 10
19
 20
-21.9280972643333
 40
0
  0
CIRCLE
  8
CONNECTIONS
 10
23
 20
-21.9280972643333
 40
0
  0
ENDBLK
  8
0
  0
ENDSEC
  0
SECTION
  2
ENTITIES
  0
INSERT
  8
1
  2
B8586_00992227
 10
27
 20
21.9280972643333
  0
ENDSEC
  0
EOF
