  0
SECTION
  2
HEADER
  9
$LIMMIN
 10
0
 20
0
  9
$LIMMAX
 10
52.5
 20
74.25
  9
$EXTMIN
 10
0
 20
38.1428508940375
  9
$EXTMAX
 10
0
 20
16
  0
ENDSEC
  0
SECTION
  2
TABLES
  0
TABLE
  2
LTYPE
 70
9
  0
LTYPE
  2
CONTINUOUS
 70
64
  3
Solid line
 72
65
 73
0
 40
0
  0
LTYPE
  2
DASHED
 70
64
  3
__ __ __ __ __ __ __ __ __
 72
65
 73
2
 40
0.75
 49
0.5
 49
-0.25
  0
LTYPE
  2
DOT
 70
64
  3
...........................
 72
65
 73
2
 40
0.25
 49
0
 49
-0.25
  0
LTYPE
  2
DASHDOT
 70
64
  3
__ . __ . __ . __ . __ . __ . 
 72
65
 73
4
 40
1
 49
0.5
 49
-0.25
 49
0
 49
-0.25
  0
ENDTAB
  0
TABLE
  2
LAYER
 70
10
  0
LAYER
  2
1
 70
0
 62
7
  6
CONTINUOUS
  0
LAYER
  2
CONNECTIONS
 70
0
 62
-7
  6
CONTINUOUS
  0
ENDTAB
  0
ENDSEC
  0
SECTION
  2
BLOCKS
  0
BLOCK
  8
0
  2
TRICON
 70
0
 10
0
 20
0
  0
POLYLINE
  8
1
 70
1
 66
1
 40
0.5
 41
0.5
  0
VERTEX
  8
1
 10
-0.25
 20
0
 42
1
  0
VERTEX
  8
1
 10
0.25
 20
0
 42
1
  0
SEQEND
  8
1
  0
ENDBLK
  8
0
  0
BLOCK
  8
0
  2
TRICONSMALL
 70
0
 10
0
 20
0
  0
POLYLINE
  8
1
 70
1
 66
1
 40
0.25
 41
0.25
  0
VERTEX
  8
1
 10
-0.125
 20
0
 42
1
  0
VERTEX
  8
1
 10
0.125
 20
0
 42
1
  0
SEQEND
  8
1
  0
ENDBLK
  8
0
  0
BLOCK
  8
0
  2
TRICONCIRCLE
 70
0
 10
0
 20
0
  0
CIRCLE
  8
1
 10
0
 20
0
 40
0.5
  0
ENDBLK
  8
0
  0
BLOCK
  8
0
  2
LCBP0
 70
0
 10
0
 20
0
  0
LINE
  8
1
 10
0
 20
-0.46875
 11
0
 21
0.46875
  0
ENDBLK
  8
0
  0
BLOCK
  8
0
  2
LCBP1
 70
0
 10
0
 20
0
  0
LINE
  8
1
 10
0
 20
-0.625
 11
0
 21
0.625
  0
ENDBLK
  8
0
  0
BLOCK
  8
0
  2
LCBP2
 70
0
 10
0
 20
0
  0
LINE
  8
1
 10
0
 20
-0.9375
 11
0
 21
0.9375
  0
ENDBLK
  8
0
  0
BLOCK
  8
0
  2
LCA1
 70
0
 10
0
 20
0
  0
SOLID
  8
1
 62
7 
 10
0
 20
0
 11
-1.4
 21
-0.275
 12
-1.4
 22
0.275
 13
-1.4
 23
0.275
  0
ENDBLK
  8
0
  0
BLOCK
  8
0
  2
LCA2
 70
0
 10
0
 20
0
  0
SOLID
  8
1
 62
7 
 10
0
 20
0
 11
-1.65
 21
-0.525
 12
-1.65
 22
0.525
 13
-1.65
 23
0.525
  0
ENDBLK
  8
0
  0
BLOCK
  8
0
  2
LCA3
 70
0
 10
0
 20
0
  0
SOLID
  8
1
 62
7 
 10
0
 20
0
 11
-2.15
 21
-1.15
 12
-2.15
 22
1.15
 13
-2.15
 23
1.15
  0
ENDBLK
  8
0
  0
BLOCK
  8
0
  2
LCA1R
 70
0
 10
0
 20
0
  0
SOLID
  8
1
 62
7 
 10
0
 20
0
 11
1.4
 21
-0.275
 12
1.4
 22
0.275
 13
1.4
 23
0.275
  0
ENDBLK
  8
0
  0
BLOCK
  8
0
  2
LCA2R
 70
0
 10
0
 20
0
  0
SOLID
  8
1
 62
7 
 10
0
 20
0
 11
1.65
 21
-0.525
 12
1.65
 22
0.525
 13
1.65
 23
0.525
  0
ENDBLK
  8
0
  0
BLOCK
  8
0
  2
LCA3R
 70
0
 10
0
 20
0
  0
SOLID
  8
1
 62
7 
 10
0
 20
0
 11
2.15
 21
-1.15
 12
2.15
 22
1.15
 13
2.15
 23
1.15
  0
ENDBLK
  8
0
  0
BLOCK
  8
0
  2
B158976_00992191
 70
0
 10
0
 20
0
  0
TEXT
  8
1
 40
2.4
 41
0.75
  1
14
  7
STANDARD
 72
2
 73
2
 10
-11.7962313879015
 20
5
 11
-11.7962313879015
 21
5
  0
TEXT
  8
1
 40
2.475
 41
0.75
  1
12
  7
STANDARD
 10
20.1685764403659
 20
-8.36249936421712
  0
LINE
  8
1
 10
19.0714254470187
 20
-4
 11
19.0714254470187
 21
-8
  0
TEXT
  8
1
 40
2.4
 41
0.75
  1
1
  7
STANDARD
 72
2
 10
7.6366464705783
 20
-7.77223259607951
 11
7.6366464705783
 21
-7.77223259607951
  0
TEXT
  8
1
 40
2.4
 41
0.75
  1
3
  7
STANDARD
 10
11.1714254470187
 20
-7.87223259607951
  0
TEXT
  8
1
 40
2.4
 41
0.75
  1
5
  7
STANDARD
 72
2
 10
3.33664647057831
 20
-7.7722325960795
 11
3.33664647057831
 21
-7.7722325960795
  0
TEXT
  8
1
 40
2.4
 41
0.75
  1
2
  7
STANDARD
 72
2
 10
11.3366464705783
 20
5.22776740392049
 11
11.3366464705783
 21
5.22776740392049
  0
TEXT
  8
1
 40
2.4
 41
0.75
  1
4
  7
STANDARD
 72
2
 10
3.01582367009833
 20
5.2
 11
3.01582367009833
 21
5.2
  0
LINE
  8
1
 10
11.0714254470187
 20
4
 11
11.0714254470187
 21
8
  0
LINE
  8
1
 10
3.07142544701874
 20
-4
 11
3.07142544701874
 21
-8
  0
LINE
  8
1
 10
3.07142544701874
 20
8
 11
3.07142544701874
 21
4
  0
LINE
  8
1
 10
7.07142544701873
 20
-4
 11
7.07142544701873
 21
-8
  0
LINE
  8
1
 10
11.0714254470187
 20
-4
 11
11.0714254470187
 21
-8
  0
CIRCLE
  8
1
 10
-18.0714254470187
 20
2.99997812913114
 40
1
  0
LINE
  8
1
 10
-16.0714254470187
 20
-4.00002187086886
 11
-17.7967043191267
 21
2.03845418150907
  0
LINE
  8
1
 10
-10.9285745529813
 20
-3
 11
-16.3571522303901
 21
-3
  0
LINE
  8
1
 10
-16.9285745529813
 20
-1
 11
-10.9285745529813
 21
-1
  0
POLYLINE
  8
1
 66
1
  0
VERTEX
  8
1
 10
13.0714254470187
 20
0
  0
VERTEX
  8
1
 10
19.0714254470187
 20
0
  0
VERTEX
  8
1
 10
19.0714254470187
 20
-4
  0
VERTEX
  8
1
 10
13.0714254470187
 20
-4
  0
VERTEX
  8
1
 10
13.0714254470187
 20
0
  0
SEQEND
  8
1
  0
LINE
  8
1
 10
15.607323831881
 20
-2
 11
19.0714254470187
 21
0
  0
LINE
  8
1
 10
15.607323831881
 20
-2
 11
13.0714254470187
 21
-2
  0
LINE
  8
1
 10
19.0714254470187
 20
-4
 11
15.607323831881
 21
-2
  0
POLYLINE
  8
1
 66
1
  0
VERTEX
  8
1
 10
-10.9285745529813
 20
4
  0
VERTEX
  8
1
 10
1.07142544701874
 20
4
  0
VERTEX
  8
1
 10
1.07142544701874
 20
-4
  0
VERTEX
  8
1
 10
-10.9285745529813
 20
-4
  0
VERTEX
  8
1
 10
-10.9285745529813
 20
4
  0
SEQEND
  8
1
  0
LINE
  8
1
 10
-8.92857455298126
 20
-4
 11
-8.92857455298126
 21
-2
  0
INSERT
  8
1
  2
LCBP1
 10
-8.92857455298126
 20
-2
 50
90
  0
LINE
  8
1
 10
-8.92857455298126
 20
4
 11
-4.92857455298126
 21
-4
  0
INSERT
  8
1
  2
LCA1
 10
-4.92857455298126
 20
-4
 50
-63.434948822922
  0
INSERT
  8
1
  2
LCA1R
 10
-8.92857455298126
 20
4
 50
-63.434948822922
  0
LINE
  8
1
 10
-0.928574552981265
 20
-4
 11
-0.928574552981265
 21
4
  0
INSERT
  8
1
  2
LCA1
 10
-0.928574552981265
 20
4
 50
90
  0
INSERT
  8
1
  2
LCA1R
 10
-0.928574552981265
 20
-4
 50
90
  0
POLYLINE
  8
1
 66
1
  0
VERTEX
  8
1
 10
1.07142544701873
 20
4
  0
VERTEX
  8
1
 10
13.0714254470187
 20
4
  0
VERTEX
  8
1
 10
13.0714254470187
 20
-4
  0
VERTEX
  8
1
 10
1.07142544701873
 20
-4
  0
VERTEX
  8
1
 10
1.07142544701873
 20
4
  0
SEQEND
  8
1
  0
LINE
  8
1
 10
11.0714254470187
 20
-4
 11
11.0714254470187
 21
-2
  0
INSERT
  8
1
  2
LCBP1
 10
11.0714254470187
 20
-2
 50
90
  0
LINE
  8
1
 10
3.07142544701874
 20
-4
 11
3.07142544701874
 21
4
  0
INSERT
  8
1
  2
LCA1
 10
3.07142544701874
 20
4
 50
90
  0
INSERT
  8
1
  2
LCA1R
 10
3.07142544701874
 20
-4
 50
90
  0
LINE
  8
1
 10
7.07142544701873
 20
-4
 11
11.0714254470187
 21
4
  0
INSERT
  8
1
  2
LCA1
 10
11.0714254470187
 20
4
 50
63.434948822922
  0
INSERT
  8
1
  2
LCA1R
 10
7.07142544701873
 20
-4
 50
63.434948822922
  0
CIRCLE
  8
CONNECTIONS
 10
19.0714254470187
 20
-8
 40
0
  0
CIRCLE
  8
CONNECTIONS
 10
3.07142544701874
 20
8
 40
0
  0
CIRCLE
  8
CONNECTIONS
 10
11.0714254470187
 20
8
 40
0
  0
CIRCLE
  8
CONNECTIONS
 10
11.0714254470187
 20
-8
 40
0
  0
CIRCLE
  8
CONNECTIONS
 10
7.07142544701873
 20
-8
 40
0
  0
CIRCLE
  8
CONNECTIONS
 10
3.07142544701874
 20
-8
 40
0
  0
ENDBLK
  8
0
  0
ENDSEC
  0
SECTION
  2
ENTITIES
  0
INSERT
  8
1
  2
B158976_00992191
 10
19.0714254470187
 20
8
  0
ENDSEC
  0
EOF
