  0
SECTION
  2
HEADER
  9
$LIMMIN
 10
0
 20
0
  9
$LIMMAX
 10
52.5
 20
74.25
  9
$EXTMIN
 10
0
 20
55.1164207458496
  9
$EXTMAX
 10
0
 20
22
  0
ENDSEC
  0
SECTION
  2
TABLES
  0
TABLE
  2
LTYPE
 70
9
  0
LTYPE
  2
CONTINUOUS
 70
64
  3
Solid line
 72
65
 73
0
 40
0
  0
LTYPE
  2
DASHED
 70
64
  3
__ __ __ __ __ __ __ __ __
 72
65
 73
2
 40
0.75
 49
0.5
 49
-0.25
  0
LTYPE
  2
DOT
 70
64
  3
...........................
 72
65
 73
2
 40
0.25
 49
0
 49
-0.25
  0
LTYPE
  2
DASHDOT
 70
64
  3
__ . __ . __ . __ . __ . __ . 
 72
65
 73
4
 40
1
 49
0.5
 49
-0.25
 49
0
 49
-0.25
  0
ENDTAB
  0
TABLE
  2
LAYER
 70
10
  0
LAYER
  2
1
 70
0
 62
7
  6
CONTINUOUS
  0
LAYER
  2
CONNECTIONS
 70
0
 62
-7
  6
CONTINUOUS
  0
ENDTAB
  0
ENDSEC
  0
SECTION
  2
BLOCKS
  0
BLOCK
  8
0
  2
TRICON
 70
0
 10
0
 20
0
  0
POLYLINE
  8
1
 70
1
 66
1
 40
0.5
 41
0.5
  0
VERTEX
  8
1
 10
-0.25
 20
0
 42
1
  0
VERTEX
  8
1
 10
0.25
 20
0
 42
1
  0
SEQEND
  8
1
  0
ENDBLK
  8
0
  0
BLOCK
  8
0
  2
TRICONSMALL
 70
0
 10
0
 20
0
  0
POLYLINE
  8
1
 70
1
 66
1
 40
0.25
 41
0.25
  0
VERTEX
  8
1
 10
-0.125
 20
0
 42
1
  0
VERTEX
  8
1
 10
0.125
 20
0
 42
1
  0
SEQEND
  8
1
  0
ENDBLK
  8
0
  0
BLOCK
  8
0
  2
TRICONCIRCLE
 70
0
 10
0
 20
0
  0
CIRCLE
  8
1
 10
0
 20
0
 40
0.5
  0
ENDBLK
  8
0
  0
BLOCK
  8
0
  2
LCBP0
 70
0
 10
0
 20
0
  0
LINE
  8
1
 10
0
 20
-0.46875
 11
0
 21
0.46875
  0
ENDBLK
  8
0
  0
BLOCK
  8
0
  2
LCBP1
 70
0
 10
0
 20
0
  0
LINE
  8
1
 10
0
 20
-0.625
 11
0
 21
0.625
  0
ENDBLK
  8
0
  0
BLOCK
  8
0
  2
LCBP2
 70
0
 10
0
 20
0
  0
LINE
  8
1
 10
0
 20
-0.9375
 11
0
 21
0.9375
  0
ENDBLK
  8
0
  0
BLOCK
  8
0
  2
LCA1
 70
0
 10
0
 20
0
  0
SOLID
  8
1
 62
7 
 10
0
 20
0
 11
-1.4
 21
-0.275
 12
-1.4
 22
0.275
 13
-1.4
 23
0.275
  0
ENDBLK
  8
0
  0
BLOCK
  8
0
  2
LCA2
 70
0
 10
0
 20
0
  0
SOLID
  8
1
 62
7 
 10
0
 20
0
 11
-1.65
 21
-0.525
 12
-1.65
 22
0.525
 13
-1.65
 23
0.525
  0
ENDBLK
  8
0
  0
BLOCK
  8
0
  2
LCA3
 70
0
 10
0
 20
0
  0
SOLID
  8
1
 62
7 
 10
0
 20
0
 11
-2.15
 21
-1.15
 12
-2.15
 22
1.15
 13
-2.15
 23
1.15
  0
ENDBLK
  8
0
  0
BLOCK
  8
0
  2
LCA1R
 70
0
 10
0
 20
0
  0
SOLID
  8
1
 62
7 
 10
0
 20
0
 11
1.4
 21
-0.275
 12
1.4
 22
0.275
 13
1.4
 23
0.275
  0
ENDBLK
  8
0
  0
BLOCK
  8
0
  2
LCA2R
 70
0
 10
0
 20
0
  0
SOLID
  8
1
 62
7 
 10
0
 20
0
 11
1.65
 21
-0.525
 12
1.65
 22
0.525
 13
1.65
 23
0.525
  0
ENDBLK
  8
0
  0
BLOCK
  8
0
  2
LCA3R
 70
0
 10
0
 20
0
  0
SOLID
  8
1
 62
7 
 10
0
 20
0
 11
2.15
 21
-1.15
 12
2.15
 22
1.15
 13
2.15
 23
1.15
  0
ENDBLK
  8
0
  0
BLOCK
  8
0
  2
B14123_00992136
 70
0
 10
0
 20
0
  0
TEXT
  8
1
 40
2.475
 41
0.75
  1
12/14
  7
STANDARD
 73
2
 10
16.4417896270752
 20
2
 11
16.4417896270752
 21
2
  0
TEXT
  8
1
 40
2.475
 41
0.75
  1
4
  7
STANDARD
 72
2
 10
-8.19298871358236
 20
2.7375
 11
-8.19298871358236
 21
2.7375
  0
TEXT
  8
1
 40
2.475
 41
0.75
  1
2
  7
STANDARD
 72
2
 10
-0.192988713582359
 20
2.7375
 11
-0.192988713582359
 21
2.7375
  0
TEXT
  8
1
 40
2.475
 41
0.75
  1
1
  7
STANDARD
 72
2
 73
3
 10
-3.69298871358236
 20
-8.87428417205811
 11
-3.69298871358236
 21
-8.87428417205811
  0
TEXT
  8
1
 40
2.475
 41
0.75
  1
3
  7
STANDARD
 73
3
 10
0.576567967732747
 20
-8.87428417205811
 11
0.576567967732747
 21
-8.87428417205811
  0
TEXT
  8
1
 40
2.475
 41
0.75
  1
5
  7
STANDARD
 72
2
 73
3
 10
-8.19298871358236
 20
-8.87428417205811
 11
-8.19298871358236
 21
-8.87428417205811
  0
LINE
  8
1
 10
-7.5582103729248
 20
-7
 11
-7.5582103729248
 21
-11
  0
LINE
  8
1
 10
-7.5582103729248
 20
5
 11
-7.5582103729248
 21
1
  0
LINE
  8
1
 10
0.441789627075195
 20
5
 11
0.441789627075195
 21
1
  0
LINE
  8
1
 10
-3.5582103729248
 20
-7
 11
-3.5582103729248
 21
-11
  0
LINE
  8
1
 10
0.441789627075195
 20
-7
 11
0.441789627075195
 21
-11
  0
LINE
  8
1
 10
-20.5582103729248
 20
-8
 11
13.4417896270752
 21
-8
  0
LINE
  8
1
 10
-20.5582103729248
 20
2
 11
13.4417896270752
 21
2
  0
LINE
  8
1
 10
14.4417896270752
 20
1
 11
14.4417896270752
 21
5
  0
LINE
  8
1
 10
-21.5582103729248
 20
1
 11
-21.5582103729248
 21
5
  0
LINE
  8
1
 10
16.1417896270752
 20
-9.16666666666666
 11
18.1417896270752
 21
-0.166666666666667
  0
INSERT
  8
1
  2
LCA1
 10
18.1417896270752
 20
-0.166666666666667
 50
77.4711922908485
  0
LINE
  8
1
 10
14.9417896270752
 20
-7
 11
16.9417896270752
 21
-3
  0
LINE
  8
1
 10
17.9417896270752
 20
-3
 11
19.9417896270752
 21
-7
  0
POLYLINE
  8
1
 66
1
  0
VERTEX
  8
1
 10
20.4417896270752
 20
-3
  0
VERTEX
  8
1
 10
14.4417896270752
 20
-3
  0
VERTEX
  8
1
 10
14.4417896270752
 20
-7
  0
VERTEX
  8
1
 10
20.4417896270752
 20
-7
  0
VERTEX
  8
1
 10
20.4417896270752
 20
-3
  0
SEQEND
  8
1
  0
LINE
  8
1
 10
20.4417896270752
 20
-5
 11
26.4417896270752
 21
-5
  0
LINE
  8
1
 10
25.9417896270752
 20
-7
 11
23.9417896270752
 21
-3
  0
LINE
  8
1
 10
22.9417896270752
 20
-3
 11
20.9417896270752
 21
-7
  0
POLYLINE
  8
1
 66
1
  0
VERTEX
  8
1
 10
20.4417896270752
 20
-3
  0
VERTEX
  8
1
 10
26.4417896270752
 20
-3
  0
VERTEX
  8
1
 10
26.4417896270752
 20
-7
  0
VERTEX
  8
1
 10
20.4417896270752
 20
-7
  0
VERTEX
  8
1
 10
20.4417896270752
 20
-3
  0
SEQEND
  8
1
  0
ARC
  8
1
 10
16.1917896270752
 20
7
 40
0.5
 50
270
 51
90
  0
LINE
  8
1
 10
16.1917896270752
 20
6.5
 11
15.4417896270752
 21
6.5
  0
LINE
  8
1
 10
15.4417896270752
 20
7.5
 11
16.1917896270752
 21
7.5
  0
LINE
  8
1
 10
15.4417896270752
 20
5.65
 11
15.4417896270752
 21
7.5
  0
ARC
  8
1
 10
18.9417896270752
 20
9.5
 40
1
 50
0
 51
180
  0
LINE
  8
1
 10
19.9417896270752
 20
8.5
 11
19.9417896270752
 21
9.5
  0
LINE
  8
1
 10
17.9417896270752
 20
8.5
 11
17.9417896270752
 21
9.5
  0
POLYLINE
  8
1
 66
1
  0
VERTEX
  8
1
 10
14.4417896270752
 20
11
  0
VERTEX
  8
1
 10
20.4417896270752
 20
11
  0
VERTEX
  8
1
 10
20.4417896270752
 20
5
  0
VERTEX
  8
1
 10
14.4417896270752
 20
5
  0
VERTEX
  8
1
 10
14.4417896270752
 20
11
  0
SEQEND
  8
1
  0
LINE
  8
1
 10
14.4417896270752
 20
11
 11
20.4417896270752
 21
5
  0
ARC
  8
1
 10
-25.8082103729248
 20
7
 40
0.5
 50
270
 51
90
  0
LINE
  8
1
 10
-25.8082103729248
 20
6.5
 11
-26.5582103729248
 21
6.5
  0
LINE
  8
1
 10
-26.5582103729248
 20
7.5
 11
-25.8082103729248
 21
7.5
  0
LINE
  8
1
 10
-26.5582103729248
 20
5.65
 11
-26.5582103729248
 21
7.5
  0
ARC
  8
1
 10
-23.0582103729248
 20
9.5
 40
1
 50
0
 51
180
  0
LINE
  8
1
 10
-22.0582103729248
 20
8.5
 11
-22.0582103729248
 21
9.5
  0
LINE
  8
1
 10
-24.0582103729248
 20
8.5
 11
-24.0582103729248
 21
9.5
  0
POLYLINE
  8
1
 66
1
  0
VERTEX
  8
1
 10
-27.5582103729248
 20
11
  0
VERTEX
  8
1
 10
-21.5582103729248
 20
11
  0
VERTEX
  8
1
 10
-21.5582103729248
 20
5
  0
VERTEX
  8
1
 10
-27.5582103729248
 20
5
  0
VERTEX
  8
1
 10
-27.5582103729248
 20
11
  0
SEQEND
  8
1
  0
LINE
  8
1
 10
-27.5582103729248
 20
11
 11
-21.5582103729248
 21
5
  0
LINE
  8
1
 10
-19.5582103729248
 20
-7
 11
-19.5582103729248
 21
-5
  0
INSERT
  8
1
  2
LCBP1
 10
-19.5582103729248
 20
-5
 50
90
  0
POLYLINE
  8
1
 66
1
  0
VERTEX
  8
1
 10
-21.5582103729248
 20
1
  0
VERTEX
  8
1
 10
-9.5582103729248
 20
1
  0
VERTEX
  8
1
 10
-9.5582103729248
 20
-7
  0
VERTEX
  8
1
 10
-21.5582103729248
 20
-7
  0
VERTEX
  8
1
 10
-21.5582103729248
 20
1
  0
SEQEND
  8
1
  0
LINE
  8
1
 10
-11.5582103729248
 20
1
 11
-11.5582103729248
 21
-7
  0
INSERT
  8
1
  2
LCA1
 10
-11.5582103729248
 20
-7
 50
-90
  0
LINE
  8
1
 10
-15.5582103729248
 20
-7
 11
-19.5582103729248
 21
1
  0
INSERT
  8
1
  2
LCA1
 10
-19.5582103729248
 20
1
 50
116.565051177078
  0
LINE
  8
1
 10
-7.5582103729248
 20
1
 11
-7.5582103729248
 21
-1
  0
INSERT
  8
1
  2
LCBP1
 10
-7.5582103729248
 20
-1
 50
-90
  0
LINE
  8
1
 10
0.441789627075195
 20
1
 11
0.441789627075195
 21
-1
  0
INSERT
  8
1
  2
LCBP1
 10
0.441789627075195
 20
-1
 50
-90
  0
LINE
  8
1
 10
0.441789627075195
 20
-7
 11
0.441789627075195
 21
-5
  0
INSERT
  8
1
  2
LCBP1
 10
0.441789627075195
 20
-5
 50
90
  0
LINE
  8
1
 10
-3.5582103729248
 20
-7
 11
-3.5582103729248
 21
-5
  0
INSERT
  8
1
  2
LCBP1
 10
-3.5582103729248
 20
-5
 50
90
  0
LINE
  8
1
 10
-7.5582103729248
 20
-7
 11
-7.5582103729248
 21
-5
  0
INSERT
  8
1
  2
LCBP1
 10
-7.5582103729248
 20
-5
 50
90
  0
POLYLINE
  8
1
 66
1
  0
VERTEX
  8
1
 10
-9.5582103729248
 20
1
  0
VERTEX
  8
1
 10
2.4417896270752
 20
1
  0
VERTEX
  8
1
 10
2.4417896270752
 20
-7
  0
VERTEX
  8
1
 10
-9.5582103729248
 20
-7
  0
VERTEX
  8
1
 10
-9.5582103729248
 20
1
  0
SEQEND
  8
1
  0
LINE
  8
1
 10
12.4417896270752
 20
-7
 11
12.4417896270752
 21
-5
  0
INSERT
  8
1
  2
LCBP0
 10
12.4417896270752
 20
-5
 50
90
  0
POLYLINE
  8
1
 66
1
  0
VERTEX
  8
1
 10
2.4417896270752
 20
1
  0
VERTEX
  8
1
 10
14.4417896270752
 20
1
  0
VERTEX
  8
1
 10
14.4417896270752
 20
-7
  0
VERTEX
  8
1
 10
2.4417896270752
 20
-7
  0
VERTEX
  8
1
 10
2.4417896270752
 20
1
  0
SEQEND
  8
1
  0
LINE
  8
1
 10
4.4417896270752
 20
1
 11
4.4417896270752
 21
-7
  0
INSERT
  8
1
  2
LCA1
 10
4.4417896270752
 20
-7
 50
-90
  0
LINE
  8
1
 10
8.4417896270752
 20
-7
 11
12.4417896270752
 21
1
  0
INSERT
  8
1
  2
LCA1
 10
12.4417896270752
 20
1
 50
63.434948822922
  0
CIRCLE
  8
CONNECTIONS
 10
-7.5582103729248
 20
5
 40
0
  0
CIRCLE
  8
CONNECTIONS
 10
-3.5582103729248
 20
-11
 40
0
  0
CIRCLE
  8
CONNECTIONS
 10
0.441789627075195
 20
-11
 40
0
  0
CIRCLE
  8
CONNECTIONS
 10
0.441789627075195
 20
5
 40
0
  0
CIRCLE
  8
CONNECTIONS
 10
-7.5582103729248
 20
-11
 40
0
  0
CIRCLE
  8
CONNECTIONS
 10
26.4417896270752
 20
-5
 40
0
  0
ENDBLK
  8
0
  0
ENDSEC
  0
SECTION
  2
ENTITIES
  0
INSERT
  8
1
  2
B14123_00992136
 10
27.5582103729248
 20
11
  0
ENDSEC
  0
EOF
