  0
SECTION
  2
HEADER
  9
$LIMMIN
 10
0
 20
0
  9
$LIMMAX
 10
52.5
 20
74.25
  9
$EXTMIN
 10
0
 20
60
  9
$EXTMAX
 10
0
 20
30
  0
ENDSEC
  0
SECTION
  2
TABLES
  0
TABLE
  2
LTYPE
 70
9
  0
LTYPE
  2
CONTINUOUS
 70
64
  3
Solid line
 72
65
 73
0
 40
0
  0
LTYPE
  2
DASHED
 70
64
  3
__ __ __ __ __ __ __ __ __
 72
65
 73
2
 40
0.75
 49
0.5
 49
-0.25
  0
LTYPE
  2
DOT
 70
64
  3
...........................
 72
65
 73
2
 40
0.25
 49
0
 49
-0.25
  0
LTYPE
  2
DASHDOT
 70
64
  3
__ . __ . __ . __ . __ . __ . 
 72
65
 73
4
 40
1
 49
0.5
 49
-0.25
 49
0
 49
-0.25
  0
ENDTAB
  0
TABLE
  2
LAYER
 70
10
  0
LAYER
  2
1
 70
0
 62
7
  6
CONTINUOUS
  0
LAYER
  2
CONNECTIONS
 70
0
 62
-7
  6
CONTINUOUS
  0
ENDTAB
  0
ENDSEC
  0
SECTION
  2
BLOCKS
  0
BLOCK
  8
0
  2
TRICON
 70
0
 10
0
 20
0
  0
POLYLINE
  8
1
 70
1
 66
1
 40
0.5
 41
0.5
  0
VERTEX
  8
1
 10
-0.25
 20
0
 42
1
  0
VERTEX
  8
1
 10
0.25
 20
0
 42
1
  0
SEQEND
  8
1
  0
ENDBLK
  8
0
  0
BLOCK
  8
0
  2
TRICONSMALL
 70
0
 10
0
 20
0
  0
POLYLINE
  8
1
 70
1
 66
1
 40
0.25
 41
0.25
  0
VERTEX
  8
1
 10
-0.125
 20
0
 42
1
  0
VERTEX
  8
1
 10
0.125
 20
0
 42
1
  0
SEQEND
  8
1
  0
ENDBLK
  8
0
  0
BLOCK
  8
0
  2
TRICONCIRCLE
 70
0
 10
0
 20
0
  0
CIRCLE
  8
1
 10
0
 20
0
 40
0.5
  0
ENDBLK
  8
0
  0
BLOCK
  8
0
  2
LCBP0
 70
0
 10
0
 20
0
  0
LINE
  8
1
 10
0
 20
-0.46875
 11
0
 21
0.46875
  0
ENDBLK
  8
0
  0
BLOCK
  8
0
  2
LCBP1
 70
0
 10
0
 20
0
  0
LINE
  8
1
 10
0
 20
-0.625
 11
0
 21
0.625
  0
ENDBLK
  8
0
  0
BLOCK
  8
0
  2
LCBP2
 70
0
 10
0
 20
0
  0
LINE
  8
1
 10
0
 20
-0.9375
 11
0
 21
0.9375
  0
ENDBLK
  8
0
  0
BLOCK
  8
0
  2
LCA1
 70
0
 10
0
 20
0
  0
SOLID
  8
1
 62
7 
 10
0
 20
0
 11
-1.4
 21
-0.275
 12
-1.4
 22
0.275
 13
-1.4
 23
0.275
  0
ENDBLK
  8
0
  0
BLOCK
  8
0
  2
LCA2
 70
0
 10
0
 20
0
  0
SOLID
  8
1
 62
7 
 10
0
 20
0
 11
-1.65
 21
-0.525
 12
-1.65
 22
0.525
 13
-1.65
 23
0.525
  0
ENDBLK
  8
0
  0
BLOCK
  8
0
  2
LCA3
 70
0
 10
0
 20
0
  0
SOLID
  8
1
 62
7 
 10
0
 20
0
 11
-2.15
 21
-1.15
 12
-2.15
 22
1.15
 13
-2.15
 23
1.15
  0
ENDBLK
  8
0
  0
BLOCK
  8
0
  2
LCA1R
 70
0
 10
0
 20
0
  0
SOLID
  8
1
 62
7 
 10
0
 20
0
 11
1.4
 21
-0.275
 12
1.4
 22
0.275
 13
1.4
 23
0.275
  0
ENDBLK
  8
0
  0
BLOCK
  8
0
  2
LCA2R
 70
0
 10
0
 20
0
  0
SOLID
  8
1
 62
7 
 10
0
 20
0
 11
1.65
 21
-0.525
 12
1.65
 22
0.525
 13
1.65
 23
0.525
  0
ENDBLK
  8
0
  0
BLOCK
  8
0
  2
LCA3R
 70
0
 10
0
 20
0
  0
SOLID
  8
1
 62
7 
 10
0
 20
0
 11
2.15
 21
-1.15
 12
2.15
 22
1.15
 13
2.15
 23
1.15
  0
ENDBLK
  8
0
  0
BLOCK
  8
0
  2
B3827_00992135
 70
0
 10
0
 20
0
  0
POLYLINE
  8
1
  6
DASHDOT
 66
1
  0
VERTEX
  8
1
 10
-26
 20
15
  0
VERTEX
  8
1
 10
26
 20
15
  0
VERTEX
  8
1
 10
26
 20
-11
  0
VERTEX
  8
1
 10
-26
 20
-11
  0
VERTEX
  8
1
 10
-26
 20
15
  0
SEQEND
  8
1
  0
LINE
  8
1
 10
-16
 20
-15
 11
-16
 21
-11
  0
LINE
  8
1
 10
26
 20
-1
 11
30
 21
-1
  0
LINE
  8
1
 10
-30
 20
-1
 11
-26
 21
-1
  0
TEXT
  8
1
 40
2.475
 41
0.75
  1
1
  7
STANDARD
 73
2
 10
-29.3375931842385
 20
1.75774345177838
 11
-29.3375931842385
 21
1.75774345177838
  0
TEXT
  8
1
 40
2.475
 41
0.75
  1
2
  7
STANDARD
 73
2
 10
26.7220447284345
 20
1.69648562300319
 11
26.7220447284345
 21
1.69648562300319
  0
LINE
  8
1
 10
21.6567312468952
 20
-1
 11
26
 21
-1
  0
LINE
  8
1
 10
-26
 20
-1
 11
-21.672034515147
 21
-1
  0
LINE
  8
1
 10
-16
 20
-6.68374446552816
 11
-16
 21
-11
  0
LINE
  8
1
 10
5.64063200431614
 20
-1
 11
10.3430227479104
 21
-1
  0
LINE
  8
1
 10
-10.3583260161622
 20
-1
 11
-5.67307649466864
 21
-1
  0
LINE
  8
1
  6
DOT
 10
15.9998769974028
 20
4.6503962266409
 11
15.9998769974028
 21
-6.66331227234387
  0
POLYLINE
  8
1
 66
1
  0
VERTEX
  8
1
 10
21.656731246895
 20
-1.00645802285148
  0
VERTEX
  8
1
 10
15.9998769974028
 20
4.6503962266409
  0
VERTEX
  8
1
 10
10.3430227479105
 20
-1.00645802285148
  0
VERTEX
  8
1
 10
15.9998769974028
 20
-6.66331227234387
  0
VERTEX
  8
1
 10
21.656731246895
 20
-1.00645802285148
  0
SEQEND
  8
1
  0
LINE
  8
1
 10
-14.5125893305401
 20
6.56930386167678
 11
-12.3912689869805
 21
8.69062420523642
  0
LINE
  8
1
 10
-14.5125893305401
 20
8.69062420523642
 11
-12.3912689869805
 21
6.56930386167678
  0
CIRCLE
  8
1
 10
-13.4519291587603
 20
7.6299640334566
 40
1.5
  0
LINE
  8
1
 10
-16.6841622057939
 20
5.86219708049023
 11
-20.2196961117267
 21
9.39773098642297
  0
INSERT
  8
1
  2
LCA1
 10
-20.2196961117267
 20
9.39773098642297
 50
135
  0
POLYLINE
  8
1
 66
1
  0
VERTEX
  8
1
 10
-20.9519291587603
 20
10.6299640334566
  0
VERTEX
  8
1
 10
-10.9519291587603
 20
10.6299640334566
  0
VERTEX
  8
1
 10
-10.9519291587603
 20
4.6299640334566
  0
VERTEX
  8
1
 10
-20.9519291587603
 20
4.6299640334566
  0
VERTEX
  8
1
 10
-20.9519291587603
 20
10.6299640334566
  0
SEQEND
  8
1
  0
LINE
  8
1
 10
3.48379969175968
 20
1.13902982944254
 11
-3.51621591510652
 21
1.13902982944254
  0
POLYLINE
  8
1
 66
1
  0
VERTEX
  8
1
 10
-3.51624290083982
 20
1.13900917377897
  0
VERTEX
  8
1
 10
-0.0162222451762517
 20
4.63902982944253
  0
VERTEX
  8
1
 10
3.48379969175975
 20
1.1390078925066
  0
VERTEX
  8
1
 10
3.48379969175975
 20
1.13902982944252
  0
VERTEX
  8
1
 10
-3.51621591510652
 20
1.13902982944252
  0
SEQEND
  8
1
  0
LINE
  8
1
 10
3.48379969175968
 20
-3.17467866954219
 11
-3.51621591510652
 21
-3.17467866954219
  0
POLYLINE
  8
1
 66
1
  0
VERTEX
  8
1
 10
-3.51624290083982
 20
-3.17465801387862
  0
VERTEX
  8
1
 10
-0.0162222451762517
 20
-6.6746786695422
  0
VERTEX
  8
1
 10
3.48379969175975
 20
-3.17465673260627
  0
VERTEX
  8
1
 10
3.48379969175975
 20
-3.1746786695422
  0
VERTEX
  8
1
 10
-3.51621591510652
 20
-3.1746786695422
  0
SEQEND
  8
1
  0
POLYLINE
  8
1
 66
1
  0
VERTEX
  8
1
 10
-0.0162222451762517
 20
4.63902982944253
  0
VERTEX
  8
1
 10
-5.67307649466863
 20
-1.01782442004982
  0
VERTEX
  8
1
 10
-0.0162222451762517
 20
-6.6746786695422
  0
VERTEX
  8
1
 10
5.64063200431625
 20
-1.01782442004982
  0
VERTEX
  8
1
 10
-0.0162222451762517
 20
4.63902982944253
  0
SEQEND
  8
1
  0
POLYLINE
  8
1
 66
1
  0
VERTEX
  8
1
 10
-12.5151583287187
 20
-3.18374446552817
  0
VERTEX
  8
1
 10
-19.5151739355849
 20
-3.18374446552817
  0
SEQEND
  8
1
  0
POLYLINE
  8
1
 66
1
  0
VERTEX
  8
1
 10
-16.0151802656546
 20
4.62996403345657
  0
VERTEX
  8
1
 10
-21.672034515147
 20
-1.0268902160358
  0
VERTEX
  8
1
 10
-16.0151802656546
 20
-6.68374446552815
  0
VERTEX
  8
1
 10
-10.3583260161622
 20
-1.0268902160358
  0
VERTEX
  8
1
 10
-16.0151802656546
 20
4.62996403345657
  0
SEQEND
  8
1
  0
LINE
  8
1
 10
-17.3938701638612
 20
-3.18373422376195
 11
-16.0151802656546
 21
-4.56242412196852
  0
LINE
  8
1
 10
-16.0151802656546
 20
-4.56242412196852
 11
-14.6365318878446
 21
-3.18377574415853
  0
LINE
  8
1
  6
DASHED
 10
-16.0151661321518
 20
-3.18374446552816
 11
-16.0151661321518
 21
4.62996403345656
  0
CIRCLE
  8
CONNECTIONS
 10
30
 20
-1
 40
0
  0
CIRCLE
  8
CONNECTIONS
 10
-30
 20
-1
 40
0
  0
ENDBLK
  8
0
  0
ENDSEC
  0
SECTION
  2
ENTITIES
  0
INSERT
  8
1
  2
B3827_00992135
 10
30
 20
15
  0
ENDSEC
  0
EOF
