  0
SECTION
  2
HEADER
  9
$LIMMIN
 10
0
 20
0
  9
$LIMMAX
 10
52.5
 20
74.25
  9
$EXTMIN
 10
0
 20
97.3
  9
$EXTMAX
 10
0
 20
52
  0
ENDSEC
  0
SECTION
  2
TABLES
  0
TABLE
  2
LTYPE
 70
9
  0
LTYPE
  2
CONTINUOUS
 70
64
  3
Solid line
 72
65
 73
0
 40
0
  0
LTYPE
  2
DASHED
 70
64
  3
__ __ __ __ __ __ __ __ __
 72
65
 73
2
 40
0.75
 49
0.5
 49
-0.25
  0
LTYPE
  2
DOT
 70
64
  3
...........................
 72
65
 73
2
 40
0.25
 49
0
 49
-0.25
  0
LTYPE
  2
DASHDOT
 70
64
  3
__ . __ . __ . __ . __ . __ . 
 72
65
 73
4
 40
1
 49
0.5
 49
-0.25
 49
0
 49
-0.25
  0
ENDTAB
  0
TABLE
  2
LAYER
 70
10
  0
LAYER
  2
1
 70
0
 62
7
  6
CONTINUOUS
  0
LAYER
  2
CONNECTIONS
 70
0
 62
-7
  6
CONTINUOUS
  0
ENDTAB
  0
ENDSEC
  0
SECTION
  2
BLOCKS
  0
BLOCK
  8
0
  2
TRICON
 70
0
 10
0
 20
0
  0
POLYLINE
  8
1
 70
1
 66
1
 40
0.5
 41
0.5
  0
VERTEX
  8
1
 10
-0.25
 20
0
 42
1
  0
VERTEX
  8
1
 10
0.25
 20
0
 42
1
  0
SEQEND
  8
1
  0
ENDBLK
  8
0
  0
BLOCK
  8
0
  2
TRICONSMALL
 70
0
 10
0
 20
0
  0
POLYLINE
  8
1
 70
1
 66
1
 40
0.25
 41
0.25
  0
VERTEX
  8
1
 10
-0.125
 20
0
 42
1
  0
VERTEX
  8
1
 10
0.125
 20
0
 42
1
  0
SEQEND
  8
1
  0
ENDBLK
  8
0
  0
BLOCK
  8
0
  2
TRICONCIRCLE
 70
0
 10
0
 20
0
  0
CIRCLE
  8
1
 10
0
 20
0
 40
0.5
  0
ENDBLK
  8
0
  0
BLOCK
  8
0
  2
LCBP0
 70
0
 10
0
 20
0
  0
LINE
  8
1
 10
0
 20
-0.46875
 11
0
 21
0.46875
  0
ENDBLK
  8
0
  0
BLOCK
  8
0
  2
LCBP1
 70
0
 10
0
 20
0
  0
LINE
  8
1
 10
0
 20
-0.625
 11
0
 21
0.625
  0
ENDBLK
  8
0
  0
BLOCK
  8
0
  2
LCBP2
 70
0
 10
0
 20
0
  0
LINE
  8
1
 10
0
 20
-0.9375
 11
0
 21
0.9375
  0
ENDBLK
  8
0
  0
BLOCK
  8
0
  2
LCA1
 70
0
 10
0
 20
0
  0
SOLID
  8
1
 62
7 
 10
0
 20
0
 11
-1.4
 21
-0.275
 12
-1.4
 22
0.275
 13
-1.4
 23
0.275
  0
ENDBLK
  8
0
  0
BLOCK
  8
0
  2
LCA2
 70
0
 10
0
 20
0
  0
SOLID
  8
1
 62
7 
 10
0
 20
0
 11
-1.65
 21
-0.525
 12
-1.65
 22
0.525
 13
-1.65
 23
0.525
  0
ENDBLK
  8
0
  0
BLOCK
  8
0
  2
LCA3
 70
0
 10
0
 20
0
  0
SOLID
  8
1
 62
7 
 10
0
 20
0
 11
-2.15
 21
-1.15
 12
-2.15
 22
1.15
 13
-2.15
 23
1.15
  0
ENDBLK
  8
0
  0
BLOCK
  8
0
  2
LCA1R
 70
0
 10
0
 20
0
  0
SOLID
  8
1
 62
7 
 10
0
 20
0
 11
1.4
 21
-0.275
 12
1.4
 22
0.275
 13
1.4
 23
0.275
  0
ENDBLK
  8
0
  0
BLOCK
  8
0
  2
LCA2R
 70
0
 10
0
 20
0
  0
SOLID
  8
1
 62
7 
 10
0
 20
0
 11
1.65
 21
-0.525
 12
1.65
 22
0.525
 13
1.65
 23
0.525
  0
ENDBLK
  8
0
  0
BLOCK
  8
0
  2
LCA3R
 70
0
 10
0
 20
0
  0
SOLID
  8
1
 62
7 
 10
0
 20
0
 11
2.15
 21
-1.15
 12
2.15
 22
1.15
 13
2.15
 23
1.15
  0
ENDBLK
  8
0
  0
BLOCK
  8
0
  2
B2168_00992102
 70
0
 10
0
 20
0
  0
POLYLINE
  8
1
 66
1
  0
VERTEX
  8
1
 10
-44.65
 20
26
  0
VERTEX
  8
1
 10
35.35
 20
26
  0
VERTEX
  8
1
 10
35.35
 20
-26
  0
VERTEX
  8
1
 10
-44.65
 20
-26
  0
VERTEX
  8
1
 10
-44.65
 20
26
  0
SEQEND
  8
1
  0
LINE
  8
1
 10
11.4500081623029
 20
-1.99999183769715
 11
-14.65
 21
-1.99999183769715
  0
LINE
  8
1
 10
39.35
 20
-2
 11
22.6636975649545
 21
-2
  0
TEXT
  8
1
 40
2.475
 41
0.75
  1
2
  7
STANDARD
 72
2
 10
40.35
 20
-1.26249999999999
 11
40.35
 21
-1.26249999999999
  0
LINE
  8
1
 10
-22.65
 20
22
 11
7.35
 21
22
  0
LINE
  8
1
 10
7.35
 20
22
 11
7.35
 21
18
  0
POLYLINE
  8
1
 70
1
 66
1
 40
0.5
 41
0.5
  0
VERTEX
  8
1
 10
-22.9
 20
22
 42
1
  0
VERTEX
  8
1
 10
-22.4
 20
22
 42
1
  0
SEQEND
  8
1
  0
LINE
  8
1
 10
-22.65
 20
-20
 11
22.35
 21
-20
  0
LINE
  8
1
 10
-22.65
 20
10
 11
-22.65
 21
-20
  0
TEXT
  8
1
 40
2.475
 41
0.75
  1
1
  7
STANDARD
 72
2
 10
-46.15
 20
22.7375
 11
-46.15
 21
22.7375
  0
LINE
  8
1
 10
-48.65
 20
22
 11
-22.65
 21
22
  0
LINE
  8
1
 10
-22.65
 20
22
 11
-22.65
 21
18
  0
ARC
  8
1
 10
-14.65
 20
-30
 40
9
 50
70.528596800055
 51
109.471050579339
  0
ARC
  8
1
 10
-14.65
 20
-10
 40
9
 50
250.52865870751
 51
289.47139531546
  0
LINE
  8
1
 10
-14.65
 20
-7
 11
-14.65
 21
-2
  0
LINE
  8
1
 10
-14.65
 20
-9.5
 11
-14.65
 21
-19
  0
POLYLINE
  8
1
 66
1
  0
VERTEX
  8
1
 10
-14.65
 20
-14.5
  0
VERTEX
  8
1
 10
-16.65
 20
-14.0833333333333
  0
VERTEX
  8
1
 10
-12.65
 20
-13.25
  0
VERTEX
  8
1
 10
-16.65
 20
-12.4166666666667
  0
VERTEX
  8
1
 10
-12.65
 20
-11.5833333333333
  0
VERTEX
  8
1
 10
-16.65
 20
-10.75
  0
VERTEX
  8
1
 10
-12.65
 20
-9.91666666666675
  0
VERTEX
  8
1
 10
-14.65
 20
-9.5
  0
SEQEND
  8
1
  0
CIRCLE
  8
1
 10
-14.65
 20
-8.5
 40
1
  0
POLYLINE
  8
1
 66
1
  0
VERTEX
  8
1
 10
-16.65
 20
-9
  0
VERTEX
  8
1
 10
-14.65
 20
-7
  0
VERTEX
  8
1
 10
-12.65
 20
-9
  0
SEQEND
  8
1
  0
LINE
  8
1
 10
7.35
 20
10
 11
7.35
 21
-2
  0
ARC
  8
1
 10
-2.65
 20
4
 40
9
 50
340.528596800055
 51
19.4710505793386
  0
ARC
  8
1
 10
17.35
 20
4
 40
9
 50
160.52865870751
 51
199.47139531546
  0
LINE
  8
1
 10
3.85
 20
2.5
 11
10.85
 21
5.5
  0
INSERT
  8
1
  2
LCA1
 10
10.85
 20
5.5
 50
23.1985905136482
  0
POLYLINE
  8
1
 70
1
 66
1
 40
0.5
 41
0.5
  0
VERTEX
  8
1
 10
7.1
 20
-2
 42
1
  0
VERTEX
  8
1
 10
7.6
 20
-2
 42
1
  0
SEQEND
  8
1
  0
POLYLINE
  8
1
 66
1
  0
VERTEX
  8
1
 10
30.35
 20
-21
  0
VERTEX
  8
1
 10
32.35
 20
-20
  0
VERTEX
  8
1
 10
30.35
 20
-19
  0
SEQEND
  8
1
  0
LINE
  8
1
 10
28.35
 20
-18
 11
28.35
 21
-20
  0
LINE
  8
1
 10
26.35
 20
-22
 11
26.35
 21
-20
  0
LINE
  8
1
 10
24.35
 20
-18
 11
24.35
 21
-20
  0
POLYLINE
  8
1
 66
1
  0
VERTEX
  8
1
 10
22.35
 20
-18
  0
VERTEX
  8
1
 10
30.35
 20
-18
  0
VERTEX
  8
1
 10
30.35
 20
-22
  0
VERTEX
  8
1
 10
22.35
 20
-22
  0
VERTEX
  8
1
 10
22.35
 20
-18
  0
SEQEND
  8
1
  0
LINE
  8
1
  6
DASHED
 10
17.1068542494922
 20
3.65685424949228
 11
17.1068542494922
 21
-7.65685424949234
  0
POLYLINE
  8
1
 66
1
  0
VERTEX
  8
1
 10
15.1068813762285
 20
-5.6568813762285
  0
VERTEX
  8
1
 10
17.106854249492
 20
-7.6568542494925
  0
VERTEX
  8
1
 10
19.1068665086905
 20
-5.6568419902945
  0
SEQEND
  8
1
  0
POLYLINE
  8
1
 66
1
  0
VERTEX
  8
1
 10
17.106854249492
 20
3.65685424949225
  0
VERTEX
  8
1
 10
11.45
 20
-2
  0
VERTEX
  8
1
 10
17.106854249492
 20
-7.6568542494925
  0
VERTEX
  8
1
 10
22.7637084989845
 20
-2
  0
VERTEX
  8
1
 10
17.106854249492
 20
3.65685424949225
  0
SEQEND
  8
1
  0
POLYLINE
  8
1
 66
1
  0
VERTEX
  8
1
 10
15.006881376228
 20
-5.6568813762285
  0
VERTEX
  8
1
 10
17.0068542494925
 20
-7.6568542494925
  0
VERTEX
  8
1
 10
19.0068665086905
 20
-5.6568419902945
  0
SEQEND
  8
1
  0
POLYLINE
  8
1
 66
1
  0
VERTEX
  8
1
 10
17.0068542494925
 20
3.65685424949225
  0
VERTEX
  8
1
 10
11.35
 20
-2
  0
VERTEX
  8
1
 10
17.0068542494925
 20
-7.6568542494925
  0
VERTEX
  8
1
 10
22.663708498985
 20
-2
  0
VERTEX
  8
1
 10
17.0068542494925
 20
3.65685424949225
  0
SEQEND
  8
1
  0
POLYLINE
  8
1
 70
1
 66
1
 40
0.5
 41
0.5
  0
VERTEX
  8
1
 10
28.1
 20
-1.96965678720327
 42
1
  0
VERTEX
  8
1
 10
28.6
 20
-1.96965678720327
 42
1
  0
SEQEND
  8
1
  0
LINE
  8
1
 10
32.85
 20
9.50000000000001
 11
23.85
 21
11.5
  0
INSERT
  8
1
  2
LCA1
 10
23.85
 20
11.5
 50
167.471192290848
  0
POLYLINE
  8
1
 66
1
  0
VERTEX
  8
1
 10
28.35
 20
13
  0
VERTEX
  8
1
 10
30.35
 20
12.5833333333333
  0
VERTEX
  8
1
 10
26.35
 20
11.75
  0
VERTEX
  8
1
 10
30.35
 20
10.9166666666667
  0
VERTEX
  8
1
 10
26.35
 20
10.0833333333333
  0
VERTEX
  8
1
 10
30.35
 20
9.25
  0
VERTEX
  8
1
 10
26.35
 20
8.4166666666667
  0
VERTEX
  8
1
 10
28.35
 20
8
  0
SEQEND
  8
1
  0
LINE
  8
1
 10
28.35
 20
-1.99999999999999
 11
28.35
 21
2.00000000000001
  0
POLYLINE
  8
1
 66
1
  0
VERTEX
  8
1
 10
48.65
 20
11.15
  0
VERTEX
  8
1
 10
48.65
 20
12.15
  0
VERTEX
  8
1
 10
47.65
 20
14.65
  0
SEQEND
  8
1
  0
LINE
  8
1
 10
28.65
 20
5.85
 11
28.65
 21
6.85
  0
POLYLINE
  8
1
 66
1
  0
VERTEX
  8
1
 10
25.35
 20
2
  0
VERTEX
  8
1
 10
31.35
 20
2
  0
VERTEX
  8
1
 10
31.35
 20
8
  0
VERTEX
  8
1
 10
25.35
 20
8
  0
VERTEX
  8
1
 10
25.35
 20
2
  0
SEQEND
  8
1
  0
LINE
  8
1
 10
-0.649999999999996
 20
18
 11
-0.649999999999996
 21
10
  0
INSERT
  8
1
  2
LCA1
 10
-0.649999999999996
 20
10
 50
-90
  0
LINE
  8
1
 10
7.35
 20
18
 11
7.35
 21
16
  0
INSERT
  8
1
  2
LCBP1
 10
7.35
 20
16
 50
-90
  0
LINE
  8
1
 10
7.35
 20
10
 11
7.35
 21
12
  0
INSERT
  8
1
  2
LCBP1
 10
7.35
 20
12
 50
90
  0
POLYLINE
  8
1
 66
1
  0
VERTEX
  8
1
 10
-4.65
 20
18
  0
VERTEX
  8
1
 10
3.35
 20
18
  0
VERTEX
  8
1
 10
3.35
 20
10
  0
VERTEX
  8
1
 10
-4.65
 20
10
  0
VERTEX
  8
1
 10
-4.65
 20
18
  0
SEQEND
  8
1
  0
POLYLINE
  8
1
 66
1
  0
VERTEX
  8
1
 10
3.35
 20
18
  0
VERTEX
  8
1
 10
11.35
 20
18
  0
VERTEX
  8
1
 10
11.35
 20
10
  0
VERTEX
  8
1
 10
3.35
 20
10
  0
VERTEX
  8
1
 10
3.35
 20
18
  0
SEQEND
  8
1
  0
LINE
  8
1
 10
-8.65
 20
17.5
 11
-4.65
 21
17.5
  0
LINE
  8
1
 10
-8.65
 20
18
 11
-8.65
 21
15
  0
LINE
  8
1
 10
-8.65
 20
15.5
 11
-4.65
 21
15.5
  0
LINE
  8
1
 10
-4.65
 20
14
 11
-4.65
 21
18
  0
LINE
  8
1
 10
-8.65
 20
10
 11
-6.65
 21
14
  0
POLYLINE
  8
1
 66
1
  0
VERTEX
  8
1
 10
-10.65
 20
14
  0
VERTEX
  8
1
 10
-4.65
 20
14
  0
VERTEX
  8
1
 10
-4.65
 20
10
  0
VERTEX
  8
1
 10
-10.65
 20
10
  0
VERTEX
  8
1
 10
-10.65
 20
14
  0
SEQEND
  8
1
  0
POLYLINE
  8
1
 66
1
  0
VERTEX
  8
1
 10
16.35
 20
12
  0
VERTEX
  8
1
 10
15.933333333333
 20
10
  0
VERTEX
  8
1
 10
15.1
 20
14
  0
VERTEX
  8
1
 10
14.2666666666665
 20
10
  0
VERTEX
  8
1
 10
13.433333333333
 20
14
  0
VERTEX
  8
1
 10
12.6
 20
10
  0
VERTEX
  8
1
 10
11.7666666666665
 20
14
  0
VERTEX
  8
1
 10
11.35
 20
12
  0
SEQEND
  8
1
  0
LINE
  8
1
 10
-30.65
 20
18
 11
-30.65
 21
16
  0
INSERT
  8
1
  2
LCBP1
 10
-30.65
 20
16
 50
-90
  0
LINE
  8
1
 10
-30.65
 20
10
 11
-30.65
 21
12
  0
INSERT
  8
1
  2
LCBP1
 10
-30.65
 20
12
 50
90
  0
LINE
  8
1
 10
-22.65
 20
18
 11
-22.65
 21
10
  0
INSERT
  8
1
  2
LCA1
 10
-22.65
 20
10
 50
-90
  0
POLYLINE
  8
1
 66
1
  0
VERTEX
  8
1
 10
-34.65
 20
18
  0
VERTEX
  8
1
 10
-26.65
 20
18
  0
VERTEX
  8
1
 10
-26.65
 20
10
  0
VERTEX
  8
1
 10
-34.65
 20
10
  0
VERTEX
  8
1
 10
-34.65
 20
18
  0
SEQEND
  8
1
  0
POLYLINE
  8
1
 66
1
  0
VERTEX
  8
1
 10
-26.65
 20
18
  0
VERTEX
  8
1
 10
-18.65
 20
18
  0
VERTEX
  8
1
 10
-18.65
 20
10
  0
VERTEX
  8
1
 10
-26.65
 20
10
  0
VERTEX
  8
1
 10
-26.65
 20
18
  0
SEQEND
  8
1
  0
LINE
  8
1
 10
-38.65
 20
17.5
 11
-34.65
 21
17.5
  0
LINE
  8
1
 10
-38.65
 20
18
 11
-38.65
 21
15
  0
LINE
  8
1
 10
-38.65
 20
15.5
 11
-34.65
 21
15.5
  0
LINE
  8
1
 10
-34.65
 20
14
 11
-34.65
 21
18
  0
LINE
  8
1
 10
-38.65
 20
10
 11
-36.65
 21
14
  0
POLYLINE
  8
1
 66
1
  0
VERTEX
  8
1
 10
-40.65
 20
14
  0
VERTEX
  8
1
 10
-34.65
 20
14
  0
VERTEX
  8
1
 10
-34.65
 20
10
  0
VERTEX
  8
1
 10
-40.65
 20
10
  0
VERTEX
  8
1
 10
-40.65
 20
14
  0
SEQEND
  8
1
  0
POLYLINE
  8
1
 66
1
  0
VERTEX
  8
1
 10
-13.65
 20
12
  0
VERTEX
  8
1
 10
-14.0666666666667
 20
10
  0
VERTEX
  8
1
 10
-14.9
 20
14
  0
VERTEX
  8
1
 10
-15.7333333333332
 20
10
  0
VERTEX
  8
1
 10
-16.5666666666667
 20
14
  0
VERTEX
  8
1
 10
-17.4
 20
10
  0
VERTEX
  8
1
 10
-18.2333333333332
 20
14
  0
VERTEX
  8
1
 10
-18.65
 20
12
  0
SEQEND
  8
1
  0
CIRCLE
  8
CONNECTIONS
 10
39.35
 20
-2
 40
0
  0
CIRCLE
  8
CONNECTIONS
 10
-48.65
 20
22
 40
0
  0
CIRCLE
  8
CONNECTIONS
 10
28.3499112780005
 20
8
 40
0
  0
CIRCLE
  8
CONNECTIONS
 10
-10.65
 20
12
 40
0
  0
CIRCLE
  8
CONNECTIONS
 10
-40.65
 20
12
 40
0
  0
ENDBLK
  8
0
  0
ENDSEC
  0
SECTION
  2
ENTITIES
  0
INSERT
  8
1
  2
B2168_00992102
 10
48.65
 20
26
  0
ENDSEC
  0
EOF
