  0
SECTION
  2
HEADER
  9
$LIMMIN
 10
0
 20
0
  9
$LIMMAX
 10
52.5
 20
74.25
  9
$EXTMIN
 10
0
 20
32.7388032277425
  9
$EXTMAX
 10
0
 20
11.9999997615814
  0
ENDSEC
  0
SECTION
  2
TABLES
  0
TABLE
  2
LTYPE
 70
9
  0
LTYPE
  2
CONTINUOUS
 70
64
  3
Solid line
 72
65
 73
0
 40
0
  0
LTYPE
  2
DASHED
 70
64
  3
__ __ __ __ __ __ __ __ __
 72
65
 73
2
 40
0.75
 49
0.5
 49
-0.25
  0
LTYPE
  2
DOT
 70
64
  3
...........................
 72
65
 73
2
 40
0.25
 49
0
 49
-0.25
  0
LTYPE
  2
DASHDOT
 70
64
  3
__ . __ . __ . __ . __ . __ . 
 72
65
 73
4
 40
1
 49
0.5
 49
-0.25
 49
0
 49
-0.25
  0
ENDTAB
  0
TABLE
  2
LAYER
 70
10
  0
LAYER
  2
1
 70
0
 62
7
  6
CONTINUOUS
  0
LAYER
  2
CONNECTIONS
 70
0
 62
-7
  6
CONTINUOUS
  0
ENDTAB
  0
ENDSEC
  0
SECTION
  2
BLOCKS
  0
BLOCK
  8
0
  2
TRICON
 70
0
 10
0
 20
0
  0
POLYLINE
  8
1
 70
1
 66
1
 40
0.5
 41
0.5
  0
VERTEX
  8
1
 10
-0.25
 20
0
 42
1
  0
VERTEX
  8
1
 10
0.25
 20
0
 42
1
  0
SEQEND
  8
1
  0
ENDBLK
  8
0
  0
BLOCK
  8
0
  2
TRICONSMALL
 70
0
 10
0
 20
0
  0
POLYLINE
  8
1
 70
1
 66
1
 40
0.25
 41
0.25
  0
VERTEX
  8
1
 10
-0.125
 20
0
 42
1
  0
VERTEX
  8
1
 10
0.125
 20
0
 42
1
  0
SEQEND
  8
1
  0
ENDBLK
  8
0
  0
BLOCK
  8
0
  2
TRICONCIRCLE
 70
0
 10
0
 20
0
  0
CIRCLE
  8
1
 10
0
 20
0
 40
0.5
  0
ENDBLK
  8
0
  0
BLOCK
  8
0
  2
LCBP0
 70
0
 10
0
 20
0
  0
LINE
  8
1
 10
0
 20
-0.46875
 11
0
 21
0.46875
  0
ENDBLK
  8
0
  0
BLOCK
  8
0
  2
LCBP1
 70
0
 10
0
 20
0
  0
LINE
  8
1
 10
0
 20
-0.625
 11
0
 21
0.625
  0
ENDBLK
  8
0
  0
BLOCK
  8
0
  2
LCBP2
 70
0
 10
0
 20
0
  0
LINE
  8
1
 10
0
 20
-0.9375
 11
0
 21
0.9375
  0
ENDBLK
  8
0
  0
BLOCK
  8
0
  2
LCA1
 70
0
 10
0
 20
0
  0
SOLID
  8
1
 62
7 
 10
0
 20
0
 11
-1.4
 21
-0.275
 12
-1.4
 22
0.275
 13
-1.4
 23
0.275
  0
ENDBLK
  8
0
  0
BLOCK
  8
0
  2
LCA2
 70
0
 10
0
 20
0
  0
SOLID
  8
1
 62
7 
 10
0
 20
0
 11
-1.65
 21
-0.525
 12
-1.65
 22
0.525
 13
-1.65
 23
0.525
  0
ENDBLK
  8
0
  0
BLOCK
  8
0
  2
LCA3
 70
0
 10
0
 20
0
  0
SOLID
  8
1
 62
7 
 10
0
 20
0
 11
-2.15
 21
-1.15
 12
-2.15
 22
1.15
 13
-2.15
 23
1.15
  0
ENDBLK
  8
0
  0
BLOCK
  8
0
  2
LCA1R
 70
0
 10
0
 20
0
  0
SOLID
  8
1
 62
7 
 10
0
 20
0
 11
1.4
 21
-0.275
 12
1.4
 22
0.275
 13
1.4
 23
0.275
  0
ENDBLK
  8
0
  0
BLOCK
  8
0
  2
LCA2R
 70
0
 10
0
 20
0
  0
SOLID
  8
1
 62
7 
 10
0
 20
0
 11
1.65
 21
-0.525
 12
1.65
 22
0.525
 13
1.65
 23
0.525
  0
ENDBLK
  8
0
  0
BLOCK
  8
0
  2
LCA3R
 70
0
 10
0
 20
0
  0
SOLID
  8
1
 62
7 
 10
0
 20
0
 11
2.15
 21
-1.15
 12
2.15
 22
1.15
 13
2.15
 23
1.15
  0
ENDBLK
  8
0
  0
BLOCK
  8
0
  2
B1757_00991968
 70
0
 10
0
 20
0
  0
LINE
  8
1
 10
-12.710621992747
 20
-0.999999682108561
 11
-7.71062199274699
 21
4.00000031789144
  0
POLYLINE
  8
1
 66
1
  0
VERTEX
  8
1
 10
-12.710621992747
 20
4.00000031789144
  0
VERTEX
  8
1
 10
-2.71062199274699
 20
4.00000031789144
  0
VERTEX
  8
1
 10
-2.71062199274699
 20
-5.99999968210856
  0
VERTEX
  8
1
 10
-12.710621992747
 20
-5.99999968210856
  0
VERTEX
  8
1
 10
-12.710621992747
 20
4.00000031789144
  0
SEQEND
  8
1
  0
LINE
  8
1
 10
-2.71062199274699
 20
-0.999999682108561
 11
-0.710621992746989
 21
-0.999999682108561
  0
LINE
  8
1
 10
-2.71062199274699
 20
3.00000031789144
 11
-0.710621992746989
 21
3.00000031789144
  0
SOLID
  8
1
 10
0.289378007253011
 20
-0.749999682108561
 11
1.78937800725301
 21
-0.749999682108561
 12
0.289378007253011
 22
-1.24999968210856
 13
1.78937800725301
 23
-1.24999968210856
  0
SOLID
  8
1
 10
1.78937800725301
 20
-1.24999968210856
 11
0.289378007253011
 21
-1.24999968210856
 12
0.289378007253011
 22
-1.24999968210856
 13
0.289378007253011
 23
-0.749999682108561
  0
LINE
  8
1
 10
-0.710621992746989
 20
-0.999999682108561
 11
0.289378007253011
 21
-0.999999682108561
  0
LINE
  8
1
 10
-0.710621992746989
 20
3.00000031789144
 11
0.289378007253011
 21
3.00000031789144
  0
SOLID
  8
1
 10
0.289378007253011
 20
3.25000031789144
 11
1.78937800725301
 21
3.25000031789144
 12
0.289378007253011
 22
2.75000031789144
 13
1.78937800725301
 23
2.75000031789144
  0
SOLID
  8
1
 10
1.78937800725301
 20
2.75000031789144
 11
0.289378007253011
 21
2.75000031789144
 12
0.289378007253011
 22
2.75000031789144
 13
0.289378007253011
 23
3.25000031789144
  0
TEXT
  8
1
 40
1.79999985694885
 41
0.75
  1
P
  7
STANDARD
 72
2
 10
-13.793476263682
 20
1.9247406244278
 11
-13.793476263682
 21
1.9247406244278
  0
LINE
  8
1
 10
-12.710621992747
 20
1.50000031789144
 11
-11.710621992747
 21
1.00000031789144
  0
LINE
  8
1
 10
-11.710621992747
 20
1.00000031789144
 11
-12.710621992747
 21
0.500000317891439
  0
LINE
  8
1
 10
-12.710621992747
 20
1.50000031789144
 11
-12.710621992747
 21
0.500000317891439
  0
LINE
  8
1
 10
-15.710621992747
 20
1.00000031789144
 11
-12.710621992747
 21
1.00000031789144
  0
LINE
  8
1
 10
2.28937800725301
 20
-0.999999682108561
 11
2.68937800725301
 21
-0.999999682108561
  0
LINE
  8
1
 10
2.28937800725301
 20
3.00000031789144
 11
2.78937800725301
 21
3.00000031789144
  0
ARC
  8
1
 10
1.28937800725301
 20
3.00000031789144
 40
1
 50
270
 51
90
  0
ARC
  8
1
 10
1.28937800725301
 20
-0.999999682108561
 40
1
 50
270
 51
90
  0
LINE
  8
1
 10
-3.71062199274699
 20
-0.999999682108561
 11
-2.71062199274699
 21
-0.999999682108561
  0
POLYLINE
  8
1
 66
1
  0
VERTEX
  8
1
 10
-5.71062199274699
 20
3.17891439394202E-07
  0
VERTEX
  8
1
 10
-5.71062199274699
 20
-1.99999968210856
  0
VERTEX
  8
1
 10
-3.71062199274699
 20
-0.999999682108561
  0
VERTEX
  8
1
 10
-5.71062199274699
 20
3.17891439394202E-07
  0
SEQEND
  8
1
  0
TEXT
  8
1
 40
1.8
 41
0.75
  1
I
  7
STANDARD
 72
2
 73
2
 10
-9.21062199274699
 20
-1.99999968210856
 11
-9.21062199274699
 21
-1.99999968210856
  0
LINE
  8
1
 10
-6.21062199274699
 20
-0.999999682108561
 11
-9.21062199274699
 21
-2.99999968210856
  0
LINE
  8
1
 10
-9.21062199274699
 20
-2.99999968210856
 11
-6.21062199274699
 21
-2.99999968210856
  0
LINE
  8
1
 10
-9.21062199274699
 20
-0.499999682108561
 11
-9.21062199274699
 21
-2.99999968210856
  0
TEXT
  8
1
 40
1.8
 41
0.75
  1
-
  7
STANDARD
 10
14.289378007253
 20
-1.50104071299235
  0
TEXT
  8
1
 40
1.8
 41
0.75
  1
+
  7
STANDARD
 10
13.7724692026774
 20
2.17474006017049
  0
TEXT
  8
1
 40
1.8
 41
0.75
  1
BU
  7
STANDARD
 10
2.28937800725301
 20
-0.550520197550456
  0
TEXT
  8
1
 40
1.8
 41
0.75
  1
3
  7
STANDARD
 10
-2.71062199274699
 20
-0.550520197550456
  0
TEXT
  8
1
 40
1.8
 41
0.75
  1
BN
  7
STANDARD
 10
2.28937800725301
 20
3.44947980244954
  0
TEXT
  8
1
 40
1.8
 41
0.75
  1
1
  7
STANDARD
 10
-2.71062199274699
 20
3.44947980244954
  0
LINE
  8
1
 10
10.289378007253
 20
-0.999999682108561
 11
13.289378007253
 21
-0.999999682108561
  0
LINE
  8
1
 10
2.68937800725301
 20
3.00000031789144
 11
13.289378007253
 21
3.00000031789144
  0
LINE
  8
1
 10
6.28937800725301
 20
-0.999999682108561
 11
2.68937800725301
 21
-0.999999682108561
  0
POLYLINE
  8
1
 66
1
  0
VERTEX
  8
1
 10
6.28937800725301
 20
-0.499999682108561
  0
VERTEX
  8
1
 10
10.289378007253
 20
-0.499999682108561
  0
VERTEX
  8
1
 10
10.289378007253
 20
-1.49999968210856
  0
VERTEX
  8
1
 10
6.28937800725301
 20
-1.49999968210856
  0
VERTEX
  8
1
 10
6.28937800725301
 20
-0.499999682108561
  0
SEQEND
  8
1
  0
TEXT
  8
1
 40
1.125
 41
0.75
  1
L
  7
STANDARD
 72
1
 10
9.50284401575724
 20
-0.0940750439961753
 11
9.50284401575724
 21
-0.0940750439961753
  0
TEXT
  8
1
 40
1.8
 41
0.75
  1
R
  7
STANDARD
 72
1
 10
7.78937800725301
 20
-0.0999996821085597
 11
7.78937800725301
 21
-0.0999996821085597
  0
ENDBLK
  8
0
  0
ENDSEC
  0
SECTION
  2
ENTITIES
  0
INSERT
  8
1
  2
B1757_00991968
 10
16.3694016138713
 20
5.99999968210856
  0
ENDSEC
  0
EOF
