  0
SECTION
  2
HEADER
  9
$LIMMIN
 10
0
 20
0
  9
$LIMMAX
 10
52.5
 20
74.25
  9
$EXTMIN
 10
0
 20
32.5343471368154
  9
$EXTMAX
 10
0
 20
12.2970473766327
  0
ENDSEC
  0
SECTION
  2
TABLES
  0
TABLE
  2
LTYPE
 70
9
  0
LTYPE
  2
CONTINUOUS
 70
64
  3
Solid line
 72
65
 73
0
 40
0
  0
LTYPE
  2
DASHED
 70
64
  3
__ __ __ __ __ __ __ __ __
 72
65
 73
2
 40
0.75
 49
0.5
 49
-0.25
  0
LTYPE
  2
DOT
 70
64
  3
...........................
 72
65
 73
2
 40
0.25
 49
0
 49
-0.25
  0
LTYPE
  2
DASHDOT
 70
64
  3
__ . __ . __ . __ . __ . __ . 
 72
65
 73
4
 40
1
 49
0.5
 49
-0.25
 49
0
 49
-0.25
  0
ENDTAB
  0
TABLE
  2
LAYER
 70
10
  0
LAYER
  2
1
 70
0
 62
7
  6
CONTINUOUS
  0
LAYER
  2
CONNECTIONS
 70
0
 62
-7
  6
CONTINUOUS
  0
ENDTAB
  0
ENDSEC
  0
SECTION
  2
BLOCKS
  0
BLOCK
  8
0
  2
TRICON
 70
0
 10
0
 20
0
  0
POLYLINE
  8
1
 70
1
 66
1
 40
0.5
 41
0.5
  0
VERTEX
  8
1
 10
-0.25
 20
0
 42
1
  0
VERTEX
  8
1
 10
0.25
 20
0
 42
1
  0
SEQEND
  8
1
  0
ENDBLK
  8
0
  0
BLOCK
  8
0
  2
TRICONSMALL
 70
0
 10
0
 20
0
  0
POLYLINE
  8
1
 70
1
 66
1
 40
0.25
 41
0.25
  0
VERTEX
  8
1
 10
-0.125
 20
0
 42
1
  0
VERTEX
  8
1
 10
0.125
 20
0
 42
1
  0
SEQEND
  8
1
  0
ENDBLK
  8
0
  0
BLOCK
  8
0
  2
TRICONCIRCLE
 70
0
 10
0
 20
0
  0
CIRCLE
  8
1
 10
0
 20
0
 40
0.5
  0
ENDBLK
  8
0
  0
BLOCK
  8
0
  2
LCBP0
 70
0
 10
0
 20
0
  0
LINE
  8
1
 10
0
 20
-0.46875
 11
0
 21
0.46875
  0
ENDBLK
  8
0
  0
BLOCK
  8
0
  2
LCBP1
 70
0
 10
0
 20
0
  0
LINE
  8
1
 10
0
 20
-0.625
 11
0
 21
0.625
  0
ENDBLK
  8
0
  0
BLOCK
  8
0
  2
LCBP2
 70
0
 10
0
 20
0
  0
LINE
  8
1
 10
0
 20
-0.9375
 11
0
 21
0.9375
  0
ENDBLK
  8
0
  0
BLOCK
  8
0
  2
LCA1
 70
0
 10
0
 20
0
  0
SOLID
  8
1
 62
7 
 10
0
 20
0
 11
-1.4
 21
-0.275
 12
-1.4
 22
0.275
 13
-1.4
 23
0.275
  0
ENDBLK
  8
0
  0
BLOCK
  8
0
  2
LCA2
 70
0
 10
0
 20
0
  0
SOLID
  8
1
 62
7 
 10
0
 20
0
 11
-1.65
 21
-0.525
 12
-1.65
 22
0.525
 13
-1.65
 23
0.525
  0
ENDBLK
  8
0
  0
BLOCK
  8
0
  2
LCA3
 70
0
 10
0
 20
0
  0
SOLID
  8
1
 62
7 
 10
0
 20
0
 11
-2.15
 21
-1.15
 12
-2.15
 22
1.15
 13
-2.15
 23
1.15
  0
ENDBLK
  8
0
  0
BLOCK
  8
0
  2
LCA1R
 70
0
 10
0
 20
0
  0
SOLID
  8
1
 62
7 
 10
0
 20
0
 11
1.4
 21
-0.275
 12
1.4
 22
0.275
 13
1.4
 23
0.275
  0
ENDBLK
  8
0
  0
BLOCK
  8
0
  2
LCA2R
 70
0
 10
0
 20
0
  0
SOLID
  8
1
 62
7 
 10
0
 20
0
 11
1.65
 21
-0.525
 12
1.65
 22
0.525
 13
1.65
 23
0.525
  0
ENDBLK
  8
0
  0
BLOCK
  8
0
  2
LCA3R
 70
0
 10
0
 20
0
  0
SOLID
  8
1
 62
7 
 10
0
 20
0
 11
2.15
 21
-1.15
 12
2.15
 22
1.15
 13
2.15
 23
1.15
  0
ENDBLK
  8
0
  0
BLOCK
  8
0
  2
B1767_00991967
 70
0
 10
0
 20
0
  0
LINE
  8
1
 10
-12.608393907547
 20
-0.747482776641847
 11
-7.608393907547
 21
4.25251722335815
  0
POLYLINE
  8
1
 66
1
  0
VERTEX
  8
1
 10
-12.608393907547
 20
4.25251722335815
  0
VERTEX
  8
1
 10
-2.608393907547
 20
4.25251722335815
  0
VERTEX
  8
1
 10
-2.608393907547
 20
-5.74748277664185
  0
VERTEX
  8
1
 10
-12.608393907547
 20
-5.74748277664185
  0
VERTEX
  8
1
 10
-12.608393907547
 20
4.25251722335815
  0
SEQEND
  8
1
  0
LINE
  8
1
 10
-2.608393907547
 20
-0.747482776641847
 11
-0.608393907546997
 21
-0.747482776641847
  0
LINE
  8
1
 10
-2.608393907547
 20
3.25251722335815
 11
-0.608393907546997
 21
3.25251722335815
  0
LINE
  8
1
 10
-2.608393907547
 20
-4.74748277664185
 11
0.391606092453003
 21
-4.74748277664185
  0
SOLID
  8
1
 10
0.391606092453003
 20
-4.49748277664185
 11
1.891606092453
 21
-4.49748277664185
 12
0.391606092453003
 22
-4.99748277664185
 13
1.891606092453
 23
-4.99748277664185
  0
SOLID
  8
1
 10
1.891606092453
 20
-4.99748277664185
 11
0.391606092453003
 21
-4.99748277664185
 12
0.391606092453003
 22
-4.99748277664185
 13
0.391606092453003
 23
-4.49748277664185
  0
SOLID
  8
1
 10
0.391606092453003
 20
-0.497482776641847
 11
1.891606092453
 21
-0.497482776641847
 12
0.391606092453003
 22
-0.997482776641847
 13
1.891606092453
 23
-0.997482776641847
  0
SOLID
  8
1
 10
1.891606092453
 20
-0.997482776641847
 11
0.391606092453003
 21
-0.997482776641847
 12
0.391606092453003
 22
-0.997482776641847
 13
0.391606092453003
 23
-0.497482776641847
  0
LINE
  8
1
 10
-0.608393907546997
 20
-0.747482776641847
 11
0.391606092453003
 21
-0.747482776641847
  0
LINE
  8
1
 10
-0.608393907546997
 20
3.25251722335815
 11
0.391606092453003
 21
3.25251722335815
  0
SOLID
  8
1
 10
0.391606092453003
 20
3.50251722335815
 11
1.891606092453
 21
3.50251722335815
 12
0.391606092453003
 22
3.00251722335815
 13
1.891606092453
 23
3.00251722335815
  0
SOLID
  8
1
 10
1.891606092453
 20
3.00251722335815
 11
0.391606092453003
 21
3.00251722335815
 12
0.391606092453003
 22
3.00251722335815
 13
0.391606092453003
 23
3.50251722335815
  0
TEXT
  8
1
 40
1.79999985694885
 41
0.75
  1
P
  7
STANDARD
 72
2
 10
-13.6912481784821
 20
2.17725752989451
 11
-13.6912481784821
 21
2.17725752989451
  0
LINE
  8
1
 10
-12.608393907547
 20
1.75251722335815
 11
-11.608393907547
 21
1.25251722335815
  0
LINE
  8
1
 10
-11.608393907547
 20
1.25251722335815
 11
-12.608393907547
 21
0.752517223358153
  0
LINE
  8
1
 10
-12.608393907547
 20
1.75251722335815
 11
-12.608393907547
 21
0.752517223358153
  0
LINE
  8
1
 10
-15.608393907547
 20
1.25251722335815
 11
-12.608393907547
 21
1.25251722335815
  0
LINE
  8
1
 10
2.391606092453
 20
-4.74748277664185
 11
2.891606092453
 21
-4.74748277664185
  0
LINE
  8
1
 10
2.391606092453
 20
-0.747482776641847
 11
2.891606092453
 21
-0.747482776641847
  0
LINE
  8
1
 10
2.391606092453
 20
3.25251722335815
 11
2.891606092453
 21
3.25251722335815
  0
ARC
  8
1
 10
1.391606092453
 20
3.25251722335815
 40
1
 50
270
 51
90
  0
ARC
  8
1
 10
1.391606092453
 20
-4.74748277664185
 40
1
 50
270
 51
90
  0
ARC
  8
1
 10
1.391606092453
 20
-0.747482776641847
 40
1
 50
270
 51
90
  0
TEXT
  8
1
 40
1.57499985694885
 41
0.75
  1
-
  7
STANDARD
 10
14.141606092453
 20
-5.36102387905121
  0
TEXT
  8
1
 40
1.57499985694885
 41
0.75
  1
+
  7
STANDARD
 10
13.8746972878774
 20
2.81475689411163
  0
TEXT
  8
1
 40
1.57499985694885
 41
0.75
  1
3
  7
STANDARD
 10
-2.608393907547
 20
-4.16050336360931
  0
TEXT
  8
1
 40
1.57499985694885
 41
0.75
  1
4
  7
STANDARD
 10
-2.608393907547
 20
-0.160503363609315
  0
TEXT
  8
1
 40
1.57499985694885
 41
0.75
  1
1
  7
STANDARD
 10
-2.608393907547
 20
3.83949663639068
  0
TEXT
  8
1
 40
1.57499985694885
 41
0.75
  1
BU
  7
STANDARD
 10
2.391606092453
 20
-4.16050336360931
  0
TEXT
  8
1
 40
1.57499985694885
 41
0.75
  1
BK
  7
STANDARD
 10
2.391606092453
 20
-0.160503363609315
  0
TEXT
  8
1
 40
1.57499985694885
 41
0.75
  1
BN
  7
STANDARD
 10
2.391606092453
 20
3.83949663639068
  0
LINE
  8
1
 10
-3.608393907547
 20
-0.747482776641847
 11
-2.608393907547
 21
-0.747482776641847
  0
POLYLINE
  8
1
 66
1
  0
VERTEX
  8
1
 10
-5.608393907547
 20
0.252517223358153
  0
VERTEX
  8
1
 10
-5.608393907547
 20
-1.74748277664185
  0
VERTEX
  8
1
 10
-3.608393907547
 20
-0.747482776641847
  0
VERTEX
  8
1
 10
-5.608393907547
 20
0.252517223358153
  0
SEQEND
  8
1
  0
TEXT
  8
1
 40
1.57499985694885
 41
0.75
  1
U
  7
STANDARD
 72
2
 73
2
 10
-9.108393907547
 20
-1.74748277664185
 11
-9.108393907547
 21
-1.74748277664185
  0
LINE
  8
1
 10
-6.108393907547
 20
-0.747482776641847
 11
-9.108393907547
 21
-2.74748277664185
  0
LINE
  8
1
 10
-9.108393907547
 20
-2.74748277664185
 11
-6.108393907547
 21
-2.74748277664185
  0
LINE
  8
1
 10
-9.108393907547
 20
-0.247482776641847
 11
-9.108393907547
 21
-2.74748277664185
  0
TEXT
  8
1
 40
1.12499992847443
 41
0.75
  1
L
  7
STANDARD
 72
1
 10
9.60507210095723
 20
0.158441825707752
 11
9.60507210095723
 21
0.158441825707752
  0
TEXT
  8
1
 40
1.57499985694885
 41
0.75
  1
R
  7
STANDARD
 72
1
 10
8.391606092453
 20
0.0400171518325806
 11
8.391606092453
 21
0.0400171518325806
  0
LINE
  8
1
 10
2.791606092453
 20
3.25251722335815
 11
13.391606092453
 21
3.25251722335815
  0
LINE
  8
1
 10
6.891606092453
 20
-0.747482776641847
 11
2.791606092453
 21
-0.747482776641847
  0
POLYLINE
  8
1
 66
1
  0
VERTEX
  8
1
 10
6.891606092453
 20
-0.247482776641847
  0
VERTEX
  8
1
 10
10.891606092453
 20
-0.247482776641847
  0
VERTEX
  8
1
 10
10.891606092453
 20
-1.24748277664185
  0
VERTEX
  8
1
 10
6.891606092453
 20
-1.24748277664185
  0
VERTEX
  8
1
 10
6.891606092453
 20
-0.247482776641847
  0
SEQEND
  8
1
  0
LINE
  8
1
 10
10.891606092453
 20
-0.747482776641847
 11
11.891606092453
 21
-0.747482776641847
  0
LINE
  8
1
 10
2.791606092453
 20
-4.74748277664185
 11
11.641606092453
 21
-4.74748277664185
  0
CIRCLE
  8
1
 10
11.891606092453
 20
-4.74748277664184
 40
0.25
  0
LINE
  8
1
 10
12.191606092453
 20
-4.74748277664185
 11
13.391606092453
 21
-4.74748277664185
  0
LINE
  8
1
 10
11.891606092453
 20
-0.747482776641847
 11
11.891606092453
 21
-4.49748277664185
  0
ENDBLK
  8
0
  0
ENDSEC
  0
SECTION
  2
ENTITIES
  0
INSERT
  8
1
  2
B1767_00991967
 10
16.2671735286713
 20
6.14852380752563
  0
ENDSEC
  0
EOF
