  0
SECTION
  2
HEADER
  9
$LIMMIN
 10
0
 20
0
  9
$LIMMAX
 10
52.5
 20
74.25
  9
$EXTMIN
 10
0
 20
58
  9
$EXTMAX
 10
0
 20
48.8284271247462
  0
ENDSEC
  0
SECTION
  2
TABLES
  0
TABLE
  2
LTYPE
 70
9
  0
LTYPE
  2
CONTINUOUS
 70
64
  3
Solid line
 72
65
 73
0
 40
0
  0
LTYPE
  2
DASHED
 70
64
  3
__ __ __ __ __ __ __ __ __
 72
65
 73
2
 40
0.75
 49
0.5
 49
-0.25
  0
LTYPE
  2
DOT
 70
64
  3
...........................
 72
65
 73
2
 40
0.25
 49
0
 49
-0.25
  0
LTYPE
  2
DASHDOT
 70
64
  3
__ . __ . __ . __ . __ . __ . 
 72
65
 73
4
 40
1
 49
0.5
 49
-0.25
 49
0
 49
-0.25
  0
ENDTAB
  0
TABLE
  2
LAYER
 70
10
  0
LAYER
  2
1
 70
0
 62
7
  6
CONTINUOUS
  0
LAYER
  2
CONNECTIONS
 70
0
 62
-7
  6
CONTINUOUS
  0
ENDTAB
  0
ENDSEC
  0
SECTION
  2
BLOCKS
  0
BLOCK
  8
0
  2
TRICON
 70
0
 10
0
 20
0
  0
POLYLINE
  8
1
 70
1
 66
1
 40
0.5
 41
0.5
  0
VERTEX
  8
1
 10
-0.25
 20
0
 42
1
  0
VERTEX
  8
1
 10
0.25
 20
0
 42
1
  0
SEQEND
  8
1
  0
ENDBLK
  8
0
  0
BLOCK
  8
0
  2
TRICONSMALL
 70
0
 10
0
 20
0
  0
POLYLINE
  8
1
 70
1
 66
1
 40
0.25
 41
0.25
  0
VERTEX
  8
1
 10
-0.125
 20
0
 42
1
  0
VERTEX
  8
1
 10
0.125
 20
0
 42
1
  0
SEQEND
  8
1
  0
ENDBLK
  8
0
  0
BLOCK
  8
0
  2
TRICONCIRCLE
 70
0
 10
0
 20
0
  0
CIRCLE
  8
1
 10
0
 20
0
 40
0.5
  0
ENDBLK
  8
0
  0
BLOCK
  8
0
  2
LCBP0
 70
0
 10
0
 20
0
  0
LINE
  8
1
 10
0
 20
-0.46875
 11
0
 21
0.46875
  0
ENDBLK
  8
0
  0
BLOCK
  8
0
  2
LCBP1
 70
0
 10
0
 20
0
  0
LINE
  8
1
 10
0
 20
-0.625
 11
0
 21
0.625
  0
ENDBLK
  8
0
  0
BLOCK
  8
0
  2
LCBP2
 70
0
 10
0
 20
0
  0
LINE
  8
1
 10
0
 20
-0.9375
 11
0
 21
0.9375
  0
ENDBLK
  8
0
  0
BLOCK
  8
0
  2
LCA1
 70
0
 10
0
 20
0
  0
SOLID
  8
1
 62
7 
 10
0
 20
0
 11
-1.4
 21
-0.275
 12
-1.4
 22
0.275
 13
-1.4
 23
0.275
  0
ENDBLK
  8
0
  0
BLOCK
  8
0
  2
LCA2
 70
0
 10
0
 20
0
  0
SOLID
  8
1
 62
7 
 10
0
 20
0
 11
-1.65
 21
-0.525
 12
-1.65
 22
0.525
 13
-1.65
 23
0.525
  0
ENDBLK
  8
0
  0
BLOCK
  8
0
  2
LCA3
 70
0
 10
0
 20
0
  0
SOLID
  8
1
 62
7 
 10
0
 20
0
 11
-2.15
 21
-1.15
 12
-2.15
 22
1.15
 13
-2.15
 23
1.15
  0
ENDBLK
  8
0
  0
BLOCK
  8
0
  2
LCA1R
 70
0
 10
0
 20
0
  0
SOLID
  8
1
 62
7 
 10
0
 20
0
 11
1.4
 21
-0.275
 12
1.4
 22
0.275
 13
1.4
 23
0.275
  0
ENDBLK
  8
0
  0
BLOCK
  8
0
  2
LCA2R
 70
0
 10
0
 20
0
  0
SOLID
  8
1
 62
7 
 10
0
 20
0
 11
1.65
 21
-0.525
 12
1.65
 22
0.525
 13
1.65
 23
0.525
  0
ENDBLK
  8
0
  0
BLOCK
  8
0
  2
LCA3R
 70
0
 10
0
 20
0
  0
SOLID
  8
1
 62
7 
 10
0
 20
0
 11
2.15
 21
-1.15
 12
2.15
 22
1.15
 13
2.15
 23
1.15
  0
ENDBLK
  8
0
  0
BLOCK
  8
0
  2
B3585_00991945
 70
0
 10
0
 20
0
  0
POLYLINE
  8
1
 66
1
  0
VERTEX
  8
1
 10
-29
 20
15.5857864376269
  0
VERTEX
  8
1
 10
29
 20
15.5857864376269
  0
VERTEX
  8
1
 10
29
 20
-20.4142135623731
  0
VERTEX
  8
1
 10
-29
 20
-20.4142135623731
  0
VERTEX
  8
1
 10
-29
 20
15.5857864376269
  0
SEQEND
  8
1
  0
TEXT
  8
1
 40
2.475
 41
0.75
  1
12
  7
STANDARD
 73
2
 10
21.6347789764404
 20
-23.4142135623731
 11
21.6347789764404
 21
-23.4142135623731
  0
TEXT
  8
1
 40
2.475
 41
0.75
  1
3
  7
STANDARD
 72
2
 73
2
 10
17
 20
-23.4142135623731
 11
17
 21
-23.4142135623731
  0
TEXT
  8
1
 40
2.475
 41
0.75
  1
1
  7
STANDARD
 72
2
 73
2
 10
9
 20
-23.4142135623731
 11
9
 21
-23.4142135623731
  0
TEXT
  8
1
 40
2.475
 41
0.75
  1
5
  7
STANDARD
 72
2
 73
2
 10
1
 20
-23.4142135623731
 11
1
 21
-23.4142135623731
  0
TEXT
  8
1
 40
2.475
 41
0.75
  1
14
  7
STANDARD
 72
2
 73
2
 10
-3
 20
-23.4142135623731
 11
-3
 21
-23.4142135623731
  0
TEXT
  8
1
 40
2.475
 41
0.75
  1
2
  7
STANDARD
 72
2
 73
2
 10
13
 20
17.2135538415474
 11
13
 21
17.2135538415474
  0
TEXT
  8
1
 40
2.475
 41
0.75
  1
4
  7
STANDARD
 72
2
 73
2
 10
5
 20
17.2135538415474
 11
5
 21
17.2135538415474
  0
LINE
  8
1
 10
5
 20
15.5857864376269
 11
5
 21
19.5857864376269
  0
LINE
  8
1
 10
-3
 20
-20.4142135623731
 11
-3
 21
-24.4142135623731
  0
LINE
  8
1
 10
1
 20
-20.4142135623731
 11
1
 21
-24.4142135623731
  0
LINE
  8
1
 10
5
 20
-20.4142135623731
 11
5
 21
-24.4142135623731
  0
LINE
  8
1
 10
9
 20
-20.4142135623731
 11
9
 21
-24.4142135623731
  0
LINE
  8
1
 10
13
 20
-20.4142135623731
 11
13
 21
-24.4142135623731
  0
LINE
  8
1
 10
17
 20
-20.4142135623731
 11
17
 21
-24.4142135623731
  0
LINE
  8
1
 10
21
 20
-20.4142135623731
 11
21
 21
-24.4142135623731
  0
LINE
  8
1
 10
21
 20
15.5857864376269
 11
21
 21
19.5857864376269
  0
LINE
  8
1
 10
17
 20
15.5857864376269
 11
17
 21
19.5857864376269
  0
LINE
  8
1
 10
13
 20
15.5857864376269
 11
13
 21
19.5857864376269
  0
LINE
  8
1
 10
9
 20
15.5857864376269
 11
9
 21
19.5857864376269
  0
LINE
  8
1
 10
1
 20
15.5857864376269
 11
1
 21
19.5857864376269
  0
LINE
  8
1
 10
-3
 20
15.5857864376269
 11
-3
 21
19.5857864376269
  0
LINE
  8
1
 10
-25
 20
-0.414213562373097
 11
-19
 21
-0.414213562373097
  0
LINE
  8
1
 10
9
 20
-16.4142135623731
 11
-25
 21
-16.4142135623731
  0
LINE
  8
1
 10
-25
 20
-16.4142135623731
 11
-25
 21
-0.414213562373097
  0
POLYLINE
  8
1
 70
1
 66
1
 40
0.6
 41
0.6
  0
VERTEX
  8
1
 10
-21.3
 20
-0.414213562373097
 42
1
  0
VERTEX
  8
1
 10
-20.7
 20
-0.414213562373097
 42
1
  0
SEQEND
  8
1
  0
LINE
  8
1
 10
-21
 20
-0.414213562373097
 11
-21
 21
-10.4142135623731
  0
LINE
  8
1
 10
-17
 20
-10.4142135623731
 11
-21
 21
-10.4142135623731
  0
LINE
  8
1
 10
1
 20
-0.414213562373097
 11
-11
 21
-0.414213562373097
  0
POLYLINE
  8
1
 70
1
 66
1
 40
0.6
 41
0.6
  0
VERTEX
  8
1
 10
-7.3
 20
-0.414213562373097
 42
1
  0
VERTEX
  8
1
 10
-6.7
 20
-0.414213562373097
 42
1
  0
SEQEND
  8
1
  0
LINE
  8
1
 10
-7
 20
-0.414213562373097
 11
-7
 21
15.5857864376269
  0
LINE
  8
1
 10
-7
 20
-10.4142135623731
 11
-11
 21
-10.4142135623731
  0
LINE
  8
1
 10
-7
 20
-10.4142135623731
 11
-7
 21
-0.414213562373097
  0
LINE
  8
1
 10
25
 20
-16.4142135623731
 11
9
 21
-16.4142135623731
  0
LINE
  8
1
 10
25
 20
-0.414213562373097
 11
17
 21
-0.414213562373097
  0
LINE
  8
1
 10
25
 20
-16.4142135623731
 11
25
 21
-0.414213562373097
  0
LINE
  8
1
 10
17
 20
-20.4142135623731
 11
17
 21
-8.4142135623731
  0
LINE
  8
1
 10
1
 20
-8.4142135623731
 11
1
 21
-20.4142135623731
  0
LINE
  8
1
 10
17
 20
-8.4142135623731
 11
1
 21
-8.4142135623731
  0
LINE
  8
1
 10
9
 20
-20.4142135623731
 11
9
 21
-16.4142135623731
  0
POLYLINE
  8
1
 70
1
 66
1
 40
0.6
 41
0.6
  0
VERTEX
  8
1
 10
8.7
 20
-8.4142135623731
 42
1
  0
VERTEX
  8
1
 10
9.3
 20
-8.4142135623731
 42
1
  0
SEQEND
  8
1
  0
POLYLINE
  8
1
 70
1
 66
1
 40
0.6
 41
0.6
  0
VERTEX
  8
1
 10
8.7
 20
-16.4142135623731
 42
1
  0
VERTEX
  8
1
 10
9.3
 20
-16.4142135623731
 42
1
  0
SEQEND
  8
1
  0
LINE
  8
1
 10
13
 20
15.5857864376269
 11
13
 21
-20.4142135623731
  0
LINE
  8
1
 10
17
 20
15.5857864376269
 11
17
 21
-0.414213562373097
  0
LINE
  8
1
 10
5
 20
15.5857864376269
 11
5
 21
-20.4142135623731
  0
LINE
  8
1
 10
9
 20
15.5857864376269
 11
9
 21
-8.4142135623731
  0
LINE
  8
1
 10
1
 20
15.5857864376269
 11
1
 21
-0.414213562373097
  0
LINE
  8
1
 10
21
 20
15.5857864376269
 11
21
 21
-20.4142135623731
  0
LINE
  8
1
 10
-3
 20
15.5857864376269
 11
-3
 21
-20.4142135623731
  0
LINE
  8
1
 10
-9.5
 20
-10.4142135623731
 11
-7
 21
-10.4142135623731
  0
LINE
  8
1
 10
-21
 20
-10.4142135623731
 11
-18.5
 21
-10.4142135623731
  0
POLYLINE
  8
1
 70
1
 66
1
 40
0.6
 41
0.6
  0
VERTEX
  8
1
 10
-7.3
 20
-0.414213562373097
 42
1
  0
VERTEX
  8
1
 10
-6.7
 20
-0.414213562373097
 42
1
  0
SEQEND
  8
1
  0
POLYLINE
  8
1
 70
1
 66
1
 40
0.6
 41
0.6
  0
VERTEX
  8
1
 10
-21.3
 20
-0.414213562373097
 42
1
  0
VERTEX
  8
1
 10
-20.7
 20
-0.414213562373097
 42
1
  0
SEQEND
  8
1
  0
LINE
  8
1
 10
-7
 20
-10.4142135623731
 11
-7
 21
-0.414213562373097
  0
LINE
  8
1
 10
-21
 20
-0.414213562373097
 11
-21
 21
-10.4142135623731
  0
LINE
  8
1
 10
-5.67480335221584
 20
20.1361309339923
 11
-8.50323047696203
 21
22.9645580587384
  0
INSERT
  8
1
  2
LCA1
 10
-8.50323047696203
 20
22.9645580587384
 50
135
  0
LINE
  8
1
 10
-7
 20
18.7573593128807
 11
-7
 21
15.5857864376269
  0
CIRCLE
  8
1
 10
-7
 20
21.5857864376269
 40
2.82842712474619
  0
LINE
  8
1
 10
-15.1
 20
-10.4142135623731
 11
-18.5
 21
-10.4142135623731
  0
LINE
  8
1
 10
-9.5
 20
-10.4142135623731
 11
-12.5
 21
-10.4142135623731
  0
POLYLINE
  8
1
 66
1
  0
VERTEX
  8
1
 10
-14.5
 20
-12.4142135623731
  0
VERTEX
  8
1
 10
-12.5
 20
-10.4142135623731
  0
VERTEX
  8
1
 10
-14.5
 20
-8.41421356237309
  0
SEQEND
  8
1
  0
CIRCLE
  8
1
 10
-13.9666666666667
 20
-10.4142135623731
 40
1
  0
LINE
  8
1
 10
-21.4449339829555
 20
6.86407866243082
 11
-12.5550668493783
 21
9.30749069222524
  0
INSERT
  8
1
  2
LCA1
 10
-12.5550668493783
 20
9.30749069222524
 50
15.3684528725217
  0
POLYLINE
  8
1
 66
1
  0
VERTEX
  8
1
 10
-17
 20
5.5857864376269
  0
VERTEX
  8
1
 10
-15
 20
6.0024531042936
  0
VERTEX
  8
1
 10
-19
 20
6.8357864376269
  0
VERTEX
  8
1
 10
-15
 20
7.66911977096028
  0
VERTEX
  8
1
 10
-19
 20
8.5024531042936
  0
VERTEX
  8
1
 10
-15
 20
9.3357864376269
  0
VERTEX
  8
1
 10
-19
 20
10.1691197709602
  0
VERTEX
  8
1
 10
-17
 20
10.5857864376269
  0
SEQEND
  8
1
  0
POLYLINE
  8
1
 66
1
  0
VERTEX
  8
1
 10
-19
 20
4.5857864376269
  0
VERTEX
  8
1
 10
-21
 20
3.5857864376269
  0
VERTEX
  8
1
 10
-19
 20
2.5857864376269
  0
SEQEND
  8
1
  0
POLYLINE
  8
1
  6
DOT
 66
1
  0
VERTEX
  8
1
 10
-17
 20
-2.4142135623731
  0
VERTEX
  8
1
 10
-17
 20
-6.4142135623731
  0
VERTEX
  8
1
 10
-9
 20
-6.4142135623731
  0
VERTEX
  8
1
 10
-9
 20
-2.4142135623731
  0
VERTEX
  8
1
 10
-11
 20
-0.414213562373099
  0
SEQEND
  8
1
  0
POLYLINE
  8
1
 66
1
  0
VERTEX
  8
1
 10
-19
 20
-2.4142135623731
  0
VERTEX
  8
1
 10
-11
 20
-2.4142135623731
  0
VERTEX
  8
1
 10
-11
 20
5.5857864376269
  0
VERTEX
  8
1
 10
-19
 20
5.5857864376269
  0
VERTEX
  8
1
 10
-19
 20
-2.4142135623731
  0
SEQEND
  8
1
  0
LINE
  8
1
 10
-11
 20
-0.414213562373097
 11
-19
 21
-0.414213562373097
  0
INSERT
  8
1
  2
LCA1
 10
-19
 20
-0.414213562373097
 50
-180
  0
INSERT
  8
1
  2
LCA1R
 10
-11
 20
-0.414213562373097
 50
-180
  0
CIRCLE
  8
CONNECTIONS
 10
-3
 20
19.5857864376269
 40
0
  0
CIRCLE
  8
CONNECTIONS
 10
1
 20
19.5857864376269
 40
0
  0
CIRCLE
  8
CONNECTIONS
 10
5
 20
19.5857864376269
 40
0
  0
CIRCLE
  8
CONNECTIONS
 10
9
 20
19.5857864376269
 40
0
  0
CIRCLE
  8
CONNECTIONS
 10
13
 20
19.5857864376269
 40
0
  0
CIRCLE
  8
CONNECTIONS
 10
17
 20
19.5857864376269
 40
0
  0
CIRCLE
  8
CONNECTIONS
 10
21
 20
19.5857864376269
 40
0
  0
CIRCLE
  8
CONNECTIONS
 10
-3
 20
-24.4142135623731
 40
0
  0
CIRCLE
  8
CONNECTIONS
 10
1
 20
-24.4142135623731
 40
0
  0
CIRCLE
  8
CONNECTIONS
 10
5
 20
-24.4142135623731
 40
0
  0
CIRCLE
  8
CONNECTIONS
 10
9
 20
-24.4142135623731
 40
0
  0
CIRCLE
  8
CONNECTIONS
 10
13
 20
-24.4142135623731
 40
0
  0
CIRCLE
  8
CONNECTIONS
 10
17
 20
-24.4142135623731
 40
0
  0
CIRCLE
  8
CONNECTIONS
 10
21
 20
-24.4142135623731
 40
0
  0
ENDBLK
  8
0
  0
ENDSEC
  0
SECTION
  2
ENTITIES
  0
INSERT
  8
1
  2
B3585_00991945
 10
29
 20
24.4142135623731
  0
ENDSEC
  0
EOF
