  0
SECTION
  2
HEADER
  9
$LIMMIN
 10
0
 20
0
  9
$LIMMAX
 10
52.5
 20
74.25
  9
$EXTMIN
 10
0
 20
62
  9
$EXTMAX
 10
0
 20
48
  0
ENDSEC
  0
SECTION
  2
TABLES
  0
TABLE
  2
LTYPE
 70
9
  0
LTYPE
  2
CONTINUOUS
 70
64
  3
Solid line
 72
65
 73
0
 40
0
  0
LTYPE
  2
DASHED
 70
64
  3
__ __ __ __ __ __ __ __ __
 72
65
 73
2
 40
0.75
 49
0.5
 49
-0.25
  0
LTYPE
  2
DOT
 70
64
  3
...........................
 72
65
 73
2
 40
0.25
 49
0
 49
-0.25
  0
LTYPE
  2
DASHDOT
 70
64
  3
__ . __ . __ . __ . __ . __ . 
 72
65
 73
4
 40
1
 49
0.5
 49
-0.25
 49
0
 49
-0.25
  0
ENDTAB
  0
TABLE
  2
LAYER
 70
10
  0
LAYER
  2
1
 70
0
 62
7
  6
CONTINUOUS
  0
LAYER
  2
CONNECTIONS
 70
0
 62
-7
  6
CONTINUOUS
  0
ENDTAB
  0
ENDSEC
  0
SECTION
  2
BLOCKS
  0
BLOCK
  8
0
  2
TRICON
 70
0
 10
0
 20
0
  0
POLYLINE
  8
1
 70
1
 66
1
 40
0.5
 41
0.5
  0
VERTEX
  8
1
 10
-0.25
 20
0
 42
1
  0
VERTEX
  8
1
 10
0.25
 20
0
 42
1
  0
SEQEND
  8
1
  0
ENDBLK
  8
0
  0
BLOCK
  8
0
  2
TRICONSMALL
 70
0
 10
0
 20
0
  0
POLYLINE
  8
1
 70
1
 66
1
 40
0.25
 41
0.25
  0
VERTEX
  8
1
 10
-0.125
 20
0
 42
1
  0
VERTEX
  8
1
 10
0.125
 20
0
 42
1
  0
SEQEND
  8
1
  0
ENDBLK
  8
0
  0
BLOCK
  8
0
  2
TRICONCIRCLE
 70
0
 10
0
 20
0
  0
CIRCLE
  8
1
 10
0
 20
0
 40
0.5
  0
ENDBLK
  8
0
  0
BLOCK
  8
0
  2
LCBP0
 70
0
 10
0
 20
0
  0
LINE
  8
1
 10
0
 20
-0.46875
 11
0
 21
0.46875
  0
ENDBLK
  8
0
  0
BLOCK
  8
0
  2
LCBP1
 70
0
 10
0
 20
0
  0
LINE
  8
1
 10
0
 20
-0.625
 11
0
 21
0.625
  0
ENDBLK
  8
0
  0
BLOCK
  8
0
  2
LCBP2
 70
0
 10
0
 20
0
  0
LINE
  8
1
 10
0
 20
-0.9375
 11
0
 21
0.9375
  0
ENDBLK
  8
0
  0
BLOCK
  8
0
  2
LCA1
 70
0
 10
0
 20
0
  0
SOLID
  8
1
 62
7 
 10
0
 20
0
 11
-1.4
 21
-0.275
 12
-1.4
 22
0.275
 13
-1.4
 23
0.275
  0
ENDBLK
  8
0
  0
BLOCK
  8
0
  2
LCA2
 70
0
 10
0
 20
0
  0
SOLID
  8
1
 62
7 
 10
0
 20
0
 11
-1.65
 21
-0.525
 12
-1.65
 22
0.525
 13
-1.65
 23
0.525
  0
ENDBLK
  8
0
  0
BLOCK
  8
0
  2
LCA3
 70
0
 10
0
 20
0
  0
SOLID
  8
1
 62
7 
 10
0
 20
0
 11
-2.15
 21
-1.15
 12
-2.15
 22
1.15
 13
-2.15
 23
1.15
  0
ENDBLK
  8
0
  0
BLOCK
  8
0
  2
LCA1R
 70
0
 10
0
 20
0
  0
SOLID
  8
1
 62
7 
 10
0
 20
0
 11
1.4
 21
-0.275
 12
1.4
 22
0.275
 13
1.4
 23
0.275
  0
ENDBLK
  8
0
  0
BLOCK
  8
0
  2
LCA2R
 70
0
 10
0
 20
0
  0
SOLID
  8
1
 62
7 
 10
0
 20
0
 11
1.65
 21
-0.525
 12
1.65
 22
0.525
 13
1.65
 23
0.525
  0
ENDBLK
  8
0
  0
BLOCK
  8
0
  2
LCA3R
 70
0
 10
0
 20
0
  0
SOLID
  8
1
 62
7 
 10
0
 20
0
 11
2.15
 21
-1.15
 12
2.15
 22
1.15
 13
2.15
 23
1.15
  0
ENDBLK
  8
0
  0
BLOCK
  8
0
  2
B434_00991944
 70
0
 10
0
 20
0
  0
POLYLINE
  8
1
 66
1
  0
VERTEX
  8
1
 10
25
 20
-7
  0
VERTEX
  8
1
 10
27
 20
-6
  0
VERTEX
  8
1
 10
25
 20
-5
  0
SEQEND
  8
1
  0
LINE
  8
1
 10
23
 20
-4
 11
23
 21
-6
  0
LINE
  8
1
 10
21
 20
-8
 11
21
 21
-6
  0
LINE
  8
1
 10
19
 20
-4
 11
19
 21
-6
  0
POLYLINE
  8
1
 66
1
  0
VERTEX
  8
1
 10
17
 20
-4
  0
VERTEX
  8
1
 10
25
 20
-4
  0
VERTEX
  8
1
 10
25
 20
-8
  0
VERTEX
  8
1
 10
17
 20
-8
  0
VERTEX
  8
1
 10
17
 20
-4
  0
SEQEND
  8
1
  0
LINE
  8
1
 10
-7
 20
-6
 11
9
 21
-6
  0
ARC
  8
1
 10
1
 20
-16
 40
9
 50
70.528596800055
 51
109.471050579339
  0
ARC
  8
1
 10
1
 20
4
 40
9
 50
250.52865870751
 51
289.47139531546
  0
LINE
  8
1
 10
-15.5
 20
10
 11
-15.5
 21
6
  0
LINE
  8
1
 10
-15
 20
10
 11
-18
 21
10
  0
LINE
  8
1
 10
-17.5
 20
10
 11
-17.5
 21
6
  0
LINE
  8
1
 10
-23
 20
2
 11
-15
 21
2
  0
INSERT
  8
1
  2
LCA1
 10
-15
 20
2
 50
0
  0
POLYLINE
  8
1
 66
1
  0
VERTEX
  8
1
 10
-15
 20
6
  0
VERTEX
  8
1
 10
-23
 20
6
  0
VERTEX
  8
1
 10
-23
 20
-2
  0
VERTEX
  8
1
 10
-15
 20
-2
  0
VERTEX
  8
1
 10
-15
 20
6
  0
SEQEND
  8
1
  0
LINE
  8
1
 10
-15
 20
-6
 11
-17
 21
-6
  0
INSERT
  8
1
  2
LCBP1
 10
-17
 20
-6
 50
-180
  0
LINE
  8
1
 10
-23
 20
-6
 11
-21
 21
-6
  0
INSERT
  8
1
  2
LCBP1
 10
-21
 20
-6
 50
0
  0
POLYLINE
  8
1
 66
1
  0
VERTEX
  8
1
 10
-15
 20
-2
  0
VERTEX
  8
1
 10
-23
 20
-2
  0
VERTEX
  8
1
 10
-23
 20
-10
  0
VERTEX
  8
1
 10
-15
 20
-10
  0
VERTEX
  8
1
 10
-15
 20
-2
  0
SEQEND
  8
1
  0
LINE
  8
1
 10
-23
 20
10
 11
-19
 21
8
  0
POLYLINE
  8
1
 66
1
  0
VERTEX
  8
1
 10
-19
 20
12
  0
VERTEX
  8
1
 10
-23
 20
12
  0
VERTEX
  8
1
 10
-23
 20
6
  0
VERTEX
  8
1
 10
-19
 20
6
  0
VERTEX
  8
1
 10
-19
 20
12
  0
SEQEND
  8
1
  0
POLYLINE
  8
1
 66
1
  0
VERTEX
  8
1
 10
-21
 20
-15
  0
VERTEX
  8
1
 10
-23
 20
-14.5833333333333
  0
VERTEX
  8
1
 10
-19
 20
-13.75
  0
VERTEX
  8
1
 10
-23
 20
-12.9166666666667
  0
VERTEX
  8
1
 10
-19
 20
-12.0833333333333
  0
VERTEX
  8
1
 10
-23
 20
-11.25
  0
VERTEX
  8
1
 10
-19
 20
-10.4166666666667
  0
VERTEX
  8
1
 10
-21
 20
-10
  0
SEQEND
  8
1
  0
LINE
  8
1
  6
DOT
 10
5
 20
10
 11
13
 21
10
  0
LINE
  8
1
  6
DOT
 10
13
 20
10
 11
13
 21
5
  0
LINE
  8
1
  6
DOT
 10
1
 20
6
 11
5
 21
10
  0
POLYLINE
  8
1
  6
DOT
 66
1
  0
VERTEX
  8
1
 10
9
 20
5
  0
VERTEX
  8
1
 10
12
 20
5
  0
SEQEND
  8
1
  0
POLYLINE
  8
1
 66
1
  0
VERTEX
  8
1
 10
-7
 20
6
  0
VERTEX
  8
1
 10
9
 20
6
  0
VERTEX
  8
1
 10
9
 20
-2
  0
VERTEX
  8
1
 10
-7
 20
-2
  0
VERTEX
  8
1
 10
-7
 20
6
  0
SEQEND
  8
1
  0
LINE
  8
1
 10
4.5
 20
2
 11
-7
 21
2
  0
CIRCLE
  8
1
 10
5.5
 20
2
 40
1
  0
LINE
  8
1
 10
7
 20
2
 11
9
 21
2
  0
POLYLINE
  8
1
 66
1
  0
VERTEX
  8
1
 10
5
 20
4
  0
VERTEX
  8
1
 10
7
 20
2
  0
VERTEX
  8
1
 10
5
 20
0
  0
SEQEND
  8
1
  0
POLYLINE
  8
1
 66
1
  0
VERTEX
  8
1
 10
-3
 20
4
  0
VERTEX
  8
1
 10
-5
 20
2
  0
VERTEX
  8
1
 10
-3
 20
0
  0
SEQEND
  8
1
  0
LINE
  8
1
 10
1
 20
12
 11
1
 21
6
  0
LINE
  8
1
 10
1
 20
2
 11
1
 21
6
  0
POLYLINE
  8
1
 70
1
 66
1
 40
0.5
 41
0.5
  0
VERTEX
  8
1
 10
0.75
 20
2
 42
1
  0
VERTEX
  8
1
 10
1.25
 20
2
 42
1
  0
SEQEND
  8
1
  0
LINE
  8
1
 10
9
 20
-6
 11
17
 21
-6
  0
LINE
  8
1
 10
13
 20
-12
 11
1
 21
-12
  0
LINE
  8
1
 10
13
 20
2
 11
13
 21
-12
  0
LINE
  8
1
 10
9
 20
2
 11
13
 21
2
  0
LINE
  8
1
 10
-11
 20
2
 11
-7
 21
2
  0
LINE
  8
1
 10
-15
 20
-6
 11
-7
 21
-6
  0
POLYLINE
  8
1
 70
1
 66
1
 40
0.5
 41
0.5
  0
VERTEX
  8
1
 10
0.75
 20
-12
 42
1
  0
VERTEX
  8
1
 10
1.25
 20
-12
 42
1
  0
SEQEND
  8
1
  0
TEXT
  8
1
 40
2.475
 41
0.75
  1
2
  7
STANDARD
 72
2
 10
0.460749308268229
 20
-24.2625
 11
0.460749308268229
 21
-24.2625
  0
LINE
  8
1
 10
1
 20
-7
 11
1
 21
-24
  0
POLYLINE
  8
1
 70
1
 66
1
 40
0.5
 41
0.5
  0
VERTEX
  8
1
 10
-11.25
 20
-6
 42
1
  0
VERTEX
  8
1
 10
-10.75
 20
-6
 42
1
  0
SEQEND
  8
1
  0
LINE
  8
1
 10
-11
 20
2
 11
-11
 21
-6
  0
TEXT
  8
1
 40
2.475
 41
0.75
  1
1
  7
STANDARD
 10
-31.5
 20
-5.2625
  0
LINE
  8
1
 10
-23
 20
-6
 11
-31
 21
-6
  0
ARC
  8
1
 10
-3
 20
16
 40
4
 50
90
 51
270
  0
LINE
  8
1
 10
-3
 20
20
 11
5
 21
20
  0
ARC
  8
1
 10
5
 20
16
 40
4
 50
270
 51
90
  0
LINE
  8
1
 10
-3
 20
12
 11
5
 21
12
  0
POLYLINE
  8
1
 66
1
  0
VERTEX
  8
1
 10
-27
 20
24
  0
VERTEX
  8
1
 10
31
 20
24
  0
VERTEX
  8
1
 10
31
 20
-20
  0
VERTEX
  8
1
 10
-27
 20
-20
  0
VERTEX
  8
1
 10
-27
 20
24
  0
SEQEND
  8
1
  0
CIRCLE
  8
CONNECTIONS
 10
-21
 20
12
 40
0
  0
CIRCLE
  8
CONNECTIONS
 10
-31
 20
-6
 40
0
  0
CIRCLE
  8
CONNECTIONS
 10
1
 20
-24
 40
0
  0
ENDBLK
  8
0
  0
ENDSEC
  0
SECTION
  2
ENTITIES
  0
INSERT
  8
1
  2
B434_00991944
 10
31
 20
24
  0
ENDSEC
  0
EOF
