  0
SECTION
  2
HEADER
  9
$LIMMIN
 10
0
 20
0
  9
$LIMMAX
 10
52.5
 20
74.25
  9
$EXTMIN
 10
0
 20
57
  9
$EXTMAX
 10
0
 20
44
  0
ENDSEC
  0
SECTION
  2
TABLES
  0
TABLE
  2
LTYPE
 70
9
  0
LTYPE
  2
CONTINUOUS
 70
64
  3
Solid line
 72
65
 73
0
 40
0
  0
LTYPE
  2
DASHED
 70
64
  3
__ __ __ __ __ __ __ __ __
 72
65
 73
2
 40
0.75
 49
0.5
 49
-0.25
  0
LTYPE
  2
DOT
 70
64
  3
...........................
 72
65
 73
2
 40
0.25
 49
0
 49
-0.25
  0
LTYPE
  2
DASHDOT
 70
64
  3
__ . __ . __ . __ . __ . __ . 
 72
65
 73
4
 40
1
 49
0.5
 49
-0.25
 49
0
 49
-0.25
  0
ENDTAB
  0
TABLE
  2
LAYER
 70
10
  0
LAYER
  2
1
 70
0
 62
7
  6
CONTINUOUS
  0
LAYER
  2
CONNECTIONS
 70
0
 62
-7
  6
CONTINUOUS
  0
ENDTAB
  0
ENDSEC
  0
SECTION
  2
BLOCKS
  0
BLOCK
  8
0
  2
TRICON
 70
0
 10
0
 20
0
  0
POLYLINE
  8
1
 70
1
 66
1
 40
0.5
 41
0.5
  0
VERTEX
  8
1
 10
-0.25
 20
0
 42
1
  0
VERTEX
  8
1
 10
0.25
 20
0
 42
1
  0
SEQEND
  8
1
  0
ENDBLK
  8
0
  0
BLOCK
  8
0
  2
TRICONSMALL
 70
0
 10
0
 20
0
  0
POLYLINE
  8
1
 70
1
 66
1
 40
0.25
 41
0.25
  0
VERTEX
  8
1
 10
-0.125
 20
0
 42
1
  0
VERTEX
  8
1
 10
0.125
 20
0
 42
1
  0
SEQEND
  8
1
  0
ENDBLK
  8
0
  0
BLOCK
  8
0
  2
TRICONCIRCLE
 70
0
 10
0
 20
0
  0
CIRCLE
  8
1
 10
0
 20
0
 40
0.5
  0
ENDBLK
  8
0
  0
BLOCK
  8
0
  2
LCBP0
 70
0
 10
0
 20
0
  0
LINE
  8
1
 10
0
 20
-0.46875
 11
0
 21
0.46875
  0
ENDBLK
  8
0
  0
BLOCK
  8
0
  2
LCBP1
 70
0
 10
0
 20
0
  0
LINE
  8
1
 10
0
 20
-0.625
 11
0
 21
0.625
  0
ENDBLK
  8
0
  0
BLOCK
  8
0
  2
LCBP2
 70
0
 10
0
 20
0
  0
LINE
  8
1
 10
0
 20
-0.9375
 11
0
 21
0.9375
  0
ENDBLK
  8
0
  0
BLOCK
  8
0
  2
LCA1
 70
0
 10
0
 20
0
  0
SOLID
  8
1
 62
7 
 10
0
 20
0
 11
-1.4
 21
-0.275
 12
-1.4
 22
0.275
 13
-1.4
 23
0.275
  0
ENDBLK
  8
0
  0
BLOCK
  8
0
  2
LCA2
 70
0
 10
0
 20
0
  0
SOLID
  8
1
 62
7 
 10
0
 20
0
 11
-1.65
 21
-0.525
 12
-1.65
 22
0.525
 13
-1.65
 23
0.525
  0
ENDBLK
  8
0
  0
BLOCK
  8
0
  2
LCA3
 70
0
 10
0
 20
0
  0
SOLID
  8
1
 62
7 
 10
0
 20
0
 11
-2.15
 21
-1.15
 12
-2.15
 22
1.15
 13
-2.15
 23
1.15
  0
ENDBLK
  8
0
  0
BLOCK
  8
0
  2
LCA1R
 70
0
 10
0
 20
0
  0
SOLID
  8
1
 62
7 
 10
0
 20
0
 11
1.4
 21
-0.275
 12
1.4
 22
0.275
 13
1.4
 23
0.275
  0
ENDBLK
  8
0
  0
BLOCK
  8
0
  2
LCA2R
 70
0
 10
0
 20
0
  0
SOLID
  8
1
 62
7 
 10
0
 20
0
 11
1.65
 21
-0.525
 12
1.65
 22
0.525
 13
1.65
 23
0.525
  0
ENDBLK
  8
0
  0
BLOCK
  8
0
  2
LCA3R
 70
0
 10
0
 20
0
  0
SOLID
  8
1
 62
7 
 10
0
 20
0
 11
2.15
 21
-1.15
 12
2.15
 22
1.15
 13
2.15
 23
1.15
  0
ENDBLK
  8
0
  0
BLOCK
  8
0
  2
B5993_00991939
 70
0
 10
0
 20
0
  0
TEXT
  8
1
 40
2.475
 41
0.75
  1
2
  7
STANDARD
 10
2.5
 20
19.2375
  0
TEXT
  8
1
 40
2.475
 41
0.75
  1
3
  7
STANDARD
 10
6.5
 20
19.2375
  0
TEXT
  8
1
 40
2.475
 41
0.75
  1
1
  7
STANDARD
 72
2
 10
1.46074930826823
 20
19.2375
 11
1.46074930826823
 21
19.2375
  0
TEXT
  8
1
 40
2.475
 41
0.75
  1
4
  7
STANDARD
 72
2
 10
-2.13477897644043
 20
19.2375
 11
-2.13477897644043
 21
19.2375
  0
TEXT
  8
1
 40
2.475
 41
0.75
  1
5
  7
STANDARD
 72
2
 10
-6.53925069173177
 20
19.2375
 11
-6.53925069173177
 21
19.2375
  0
LINE
  8
1
 10
0
 20
18
 11
0
 21
14
  0
LINE
  8
1
 10
4
 20
-18
 11
4
 21
-22
  0
LINE
  8
1
 10
-4
 20
-18
 11
-4
 21
-22
  0
LINE
  8
1
 10
4
 20
14
 11
4
 21
18
  0
LINE
  8
1
 10
-4
 20
14
 11
-4
 21
18
  0
LINE
  8
1
 10
8
 20
-18
 11
8
 21
-22
  0
LINE
  8
1
 10
8
 20
18
 11
8
 21
14
  0
LINE
  8
1
 10
-8
 20
-22
 11
-8
 21
-18
  0
LINE
  8
1
 10
-8
 20
18
 11
-8
 21
14
  0
LINE
  8
1
 10
0
 20
-18
 11
0
 21
-22
  0
LINE
  8
1
 10
12
 20
0
 11
16
 21
0
  0
LINE
  8
1
 10
-12
 20
0
 11
-16
 21
0
  0
LINE
  8
1
 10
-28
 20
-10
 11
-23
 21
-10
  0
LINE
  8
1
 10
28
 20
-10
 11
23
 21
-10
  0
LINE
  8
1
 10
28
 20
0
 11
24
 21
0
  0
LINE
  8
1
 10
-28
 20
0
 11
-24
 21
0
  0
LINE
  8
1
 10
8
 20
-10
 11
14
 21
-10
  0
LINE
  8
1
 10
8
 20
14
 11
8
 21
-10
  0
LINE
  8
1
 10
4
 20
14
 11
4
 21
-18
  0
LINE
  8
1
 10
0
 20
14
 11
0
 21
-14
  0
LINE
  8
1
 10
-4
 20
14
 11
-4
 21
-18
  0
LINE
  8
1
 10
-8
 20
14
 11
-8
 21
-10
  0
LINE
  8
1
 10
8
 20
-14
 11
8
 21
-18
  0
LINE
  8
1
 10
-8
 20
-18
 11
-8
 21
-14
  0
LINE
  8
1
 10
-12
 20
0
 11
-12
 21
18
  0
LINE
  8
1
 10
12
 20
0
 11
12
 21
18
  0
LINE
  8
1
 10
12
 20
18
 11
16
 21
18
  0
LINE
  8
1
 10
-12
 20
18
 11
-16
 21
18
  0
LINE
  8
1
 10
-8
 20
-14
 11
8
 21
-14
  0
LINE
  8
1
 10
28
 20
-10
 11
28
 21
-18
  0
LINE
  8
1
 10
-28
 20
-10
 11
-28
 21
-18
  0
LINE
  8
1
 10
-28
 20
-18
 11
28
 21
-18
  0
LINE
  8
1
 10
12
 20
0
 11
8
 21
0
  0
LINE
  8
1
 10
28
 20
-10
 11
28
 21
0
  0
LINE
  8
1
 10
-8
 20
-10
 11
-14
 21
-10
  0
LINE
  8
1
 10
-12
 20
0
 11
-8
 21
0
  0
LINE
  8
1
 10
-28
 20
0
 11
-28
 21
-10
  0
POLYLINE
  8
1
 70
1
 66
1
 40
0.5
 41
0.5
  0
VERTEX
  8
1
 10
-28.25
 20
-10
 42
1
  0
VERTEX
  8
1
 10
-27.75
 20
-10
 42
1
  0
SEQEND
  8
1
  0
POLYLINE
  8
1
 70
1
 66
1
 40
0.5
 41
0.5
  0
VERTEX
  8
1
 10
27.75
 20
-10
 42
1
  0
VERTEX
  8
1
 10
28.25
 20
-10
 42
1
  0
SEQEND
  8
1
  0
POLYLINE
  8
1
 70
1
 66
1
 40
0.5
 41
0.5
  0
VERTEX
  8
1
 10
11.75
 20
0
 42
1
  0
VERTEX
  8
1
 10
12.25
 20
0
 42
1
  0
SEQEND
  8
1
  0
POLYLINE
  8
1
 70
1
 66
1
 40
0.5
 41
0.5
  0
VERTEX
  8
1
 10
7.75
 20
0
 42
1
  0
VERTEX
  8
1
 10
8.25
 20
0
 42
1
  0
SEQEND
  8
1
  0
POLYLINE
  8
1
 70
1
 66
1
 40
0.5
 41
0.5
  0
VERTEX
  8
1
 10
-8.25
 20
0
 42
1
  0
VERTEX
  8
1
 10
-7.75
 20
0
 42
1
  0
SEQEND
  8
1
  0
POLYLINE
  8
1
 70
1
 66
1
 40
0.5
 41
0.5
  0
VERTEX
  8
1
 10
-12.25
 20
0
 42
1
  0
VERTEX
  8
1
 10
-11.75
 20
0
 42
1
  0
SEQEND
  8
1
  0
POLYLINE
  8
1
 70
1
 66
1
 40
0.5
 41
0.5
  0
VERTEX
  8
1
 10
-0.25
 20
-18
 42
1
  0
VERTEX
  8
1
 10
0.25
 20
-18
 42
1
  0
SEQEND
  8
1
  0
POLYLINE
  8
1
 70
1
 66
1
 40
0.5
 41
0.5
  0
VERTEX
  8
1
 10
-0.25
 20
-14
 42
1
  0
VERTEX
  8
1
 10
0.25
 20
-14
 42
1
  0
SEQEND
  8
1
  0
LINE
  8
1
 10
21.7677669529664
 20
16.2322330470336
 11
18.2322330470336
 21
19.7677669529664
  0
INSERT
  8
1
  2
LCA1
 10
18.2322330470336
 20
19.7677669529664
 50
135
  0
CIRCLE
  8
1
 10
20
 20
18
 40
4
  0
LINE
  8
1
 10
-18.2322330470336
 20
16.2322330470336
 11
-21.7677669529664
 21
19.7677669529664
  0
INSERT
  8
1
  2
LCA1
 10
-21.7677669529664
 20
19.7677669529664
 50
135
  0
CIRCLE
  8
1
 10
-20
 20
18
 40
4
  0
LINE
  8
1
 10
19.6
 20
-10
 11
23
 21
-10
  0
LINE
  8
1
 10
14
 20
-10
 11
17
 21
-10
  0
POLYLINE
  8
1
 66
1
  0
VERTEX
  8
1
 10
19
 20
-8
  0
VERTEX
  8
1
 10
17
 20
-10
  0
VERTEX
  8
1
 10
19
 20
-12
  0
SEQEND
  8
1
  0
CIRCLE
  8
1
 10
18.4666666666667
 20
-10
 40
1
  0
LINE
  8
1
 10
-19.6
 20
-10
 11
-23
 21
-10
  0
LINE
  8
1
 10
-14
 20
-10
 11
-17
 21
-10
  0
POLYLINE
  8
1
 66
1
  0
VERTEX
  8
1
 10
-19
 20
-12
  0
VERTEX
  8
1
 10
-17
 20
-10
  0
VERTEX
  8
1
 10
-19
 20
-8
  0
SEQEND
  8
1
  0
CIRCLE
  8
1
 10
-18.4666666666667
 20
-10
 40
1
  0
LINE
  8
1
 10
26.4449339829555
 20
7.27829222480391
 11
17.5550668493783
 21
9.72170425459834
  0
INSERT
  8
1
  2
LCA1
 10
17.5550668493783
 20
9.72170425459834
 50
164.631547127478
  0
POLYLINE
  8
1
 66
1
  0
VERTEX
  8
1
 10
22
 20
6
  0
VERTEX
  8
1
 10
20
 20
6.4166666666667
  0
VERTEX
  8
1
 10
24
 20
7.25
  0
VERTEX
  8
1
 10
20
 20
8.08333333333337
  0
VERTEX
  8
1
 10
24
 20
8.9166666666667
  0
VERTEX
  8
1
 10
20
 20
9.75
  0
VERTEX
  8
1
 10
24
 20
10.5833333333333
  0
VERTEX
  8
1
 10
22
 20
11
  0
SEQEND
  8
1
  0
POLYLINE
  8
1
 66
1
  0
VERTEX
  8
1
 10
24
 20
5
  0
VERTEX
  8
1
 10
26
 20
4
  0
VERTEX
  8
1
 10
24
 20
3
  0
SEQEND
  8
1
  0
POLYLINE
  8
1
  6
DOT
 66
1
  0
VERTEX
  8
1
 10
22
 20
-2
  0
VERTEX
  8
1
 10
22
 20
-6
  0
VERTEX
  8
1
 10
14
 20
-6
  0
VERTEX
  8
1
 10
14
 20
-2
  0
VERTEX
  8
1
 10
16
 20
0
  0
SEQEND
  8
1
  0
POLYLINE
  8
1
 66
1
  0
VERTEX
  8
1
 10
24
 20
-2
  0
VERTEX
  8
1
 10
16
 20
-2
  0
VERTEX
  8
1
 10
16
 20
6
  0
VERTEX
  8
1
 10
24
 20
6
  0
VERTEX
  8
1
 10
24
 20
-2
  0
SEQEND
  8
1
  0
LINE
  8
1
 10
16
 20
0
 11
24
 21
0
  0
INSERT
  8
1
  2
LCA1
 10
24
 20
0
 50
0
  0
INSERT
  8
1
  2
LCA1R
 10
16
 20
0
 50
0
  0
LINE
  8
1
 10
-26.4449339829555
 20
7.27829222480391
 11
-17.5550668493783
 21
9.72170425459834
  0
INSERT
  8
1
  2
LCA1
 10
-17.5550668493783
 20
9.72170425459834
 50
15.3684528725217
  0
POLYLINE
  8
1
 66
1
  0
VERTEX
  8
1
 10
-22
 20
6
  0
VERTEX
  8
1
 10
-20
 20
6.4166666666667
  0
VERTEX
  8
1
 10
-24
 20
7.25
  0
VERTEX
  8
1
 10
-20
 20
8.08333333333337
  0
VERTEX
  8
1
 10
-24
 20
8.9166666666667
  0
VERTEX
  8
1
 10
-20
 20
9.75
  0
VERTEX
  8
1
 10
-24
 20
10.5833333333333
  0
VERTEX
  8
1
 10
-22
 20
11
  0
SEQEND
  8
1
  0
POLYLINE
  8
1
 66
1
  0
VERTEX
  8
1
 10
-24
 20
5
  0
VERTEX
  8
1
 10
-26
 20
4
  0
VERTEX
  8
1
 10
-24
 20
3
  0
SEQEND
  8
1
  0
POLYLINE
  8
1
  6
DOT
 66
1
  0
VERTEX
  8
1
 10
-22
 20
-2
  0
VERTEX
  8
1
 10
-22
 20
-6
  0
VERTEX
  8
1
 10
-14
 20
-6
  0
VERTEX
  8
1
 10
-14
 20
-2
  0
VERTEX
  8
1
 10
-16
 20
0
  0
SEQEND
  8
1
  0
POLYLINE
  8
1
 66
1
  0
VERTEX
  8
1
 10
-24
 20
-2
  0
VERTEX
  8
1
 10
-16
 20
-2
  0
VERTEX
  8
1
 10
-16
 20
6
  0
VERTEX
  8
1
 10
-24
 20
6
  0
VERTEX
  8
1
 10
-24
 20
-2
  0
SEQEND
  8
1
  0
LINE
  8
1
 10
-16
 20
0
 11
-24
 21
0
  0
INSERT
  8
1
  2
LCA1
 10
-24
 20
0
 50
-180
  0
INSERT
  8
1
  2
LCA1R
 10
-16
 20
0
 50
-180
  0
CIRCLE
  8
CONNECTIONS
 10
-8
 20
-22
 40
0
  0
CIRCLE
  8
CONNECTIONS
 10
-4
 20
-22
 40
0
  0
CIRCLE
  8
CONNECTIONS
 10
0
 20
-22
 40
0
  0
CIRCLE
  8
CONNECTIONS
 10
4
 20
-22
 40
0
  0
CIRCLE
  8
CONNECTIONS
 10
8
 20
-22
 40
0
  0
CIRCLE
  8
CONNECTIONS
 10
-8
 20
18
 40
0
  0
CIRCLE
  8
CONNECTIONS
 10
-4
 20
18
 40
0
  0
CIRCLE
  8
CONNECTIONS
 10
0
 20
18
 40
0
  0
CIRCLE
  8
CONNECTIONS
 10
4
 20
18
 40
0
  0
CIRCLE
  8
CONNECTIONS
 10
8
 20
18
 40
0
  0
ENDBLK
  8
0
  0
ENDSEC
  0
SECTION
  2
ENTITIES
  0
INSERT
  8
1
  2
B5993_00991939
 10
28.5
 20
22
  0
ENDSEC
  0
EOF
