  0
SECTION
  2
HEADER
  9
$LIMMIN
 10
0
 20
0
  9
$LIMMAX
 10
52.5
 20
74.25
  9
$EXTMIN
 10
0
 20
20.0000069329713
  9
$EXTMAX
 10
0
 20
12.9999722681146
  0
ENDSEC
  0
SECTION
  2
TABLES
  0
TABLE
  2
LTYPE
 70
9
  0
LTYPE
  2
CONTINUOUS
 70
64
  3
Solid line
 72
65
 73
0
 40
0
  0
LTYPE
  2
DASHED
 70
64
  3
__ __ __ __ __ __ __ __ __
 72
65
 73
2
 40
0.75
 49
0.5
 49
-0.25
  0
LTYPE
  2
DOT
 70
64
  3
...........................
 72
65
 73
2
 40
0.25
 49
0
 49
-0.25
  0
LTYPE
  2
DASHDOT
 70
64
  3
__ . __ . __ . __ . __ . __ . 
 72
65
 73
4
 40
1
 49
0.5
 49
-0.25
 49
0
 49
-0.25
  0
ENDTAB
  0
TABLE
  2
LAYER
 70
10
  0
LAYER
  2
1
 70
0
 62
7
  6
CONTINUOUS
  0
LAYER
  2
CONNECTIONS
 70
0
 62
-7
  6
CONTINUOUS
  0
ENDTAB
  0
ENDSEC
  0
SECTION
  2
BLOCKS
  0
BLOCK
  8
0
  2
TRICON
 70
0
 10
0
 20
0
  0
POLYLINE
  8
1
 70
1
 66
1
 40
0.5
 41
0.5
  0
VERTEX
  8
1
 10
-0.25
 20
0
 42
1
  0
VERTEX
  8
1
 10
0.25
 20
0
 42
1
  0
SEQEND
  8
1
  0
ENDBLK
  8
0
  0
BLOCK
  8
0
  2
TRICONSMALL
 70
0
 10
0
 20
0
  0
POLYLINE
  8
1
 70
1
 66
1
 40
0.25
 41
0.25
  0
VERTEX
  8
1
 10
-0.125
 20
0
 42
1
  0
VERTEX
  8
1
 10
0.125
 20
0
 42
1
  0
SEQEND
  8
1
  0
ENDBLK
  8
0
  0
BLOCK
  8
0
  2
TRICONCIRCLE
 70
0
 10
0
 20
0
  0
CIRCLE
  8
1
 10
0
 20
0
 40
0.5
  0
ENDBLK
  8
0
  0
BLOCK
  8
0
  2
LCBP0
 70
0
 10
0
 20
0
  0
LINE
  8
1
 10
0
 20
-0.46875
 11
0
 21
0.46875
  0
ENDBLK
  8
0
  0
BLOCK
  8
0
  2
LCBP1
 70
0
 10
0
 20
0
  0
LINE
  8
1
 10
0
 20
-0.625
 11
0
 21
0.625
  0
ENDBLK
  8
0
  0
BLOCK
  8
0
  2
LCBP2
 70
0
 10
0
 20
0
  0
LINE
  8
1
 10
0
 20
-0.9375
 11
0
 21
0.9375
  0
ENDBLK
  8
0
  0
BLOCK
  8
0
  2
LCA1
 70
0
 10
0
 20
0
  0
SOLID
  8
1
 62
7 
 10
0
 20
0
 11
-1.4
 21
-0.275
 12
-1.4
 22
0.275
 13
-1.4
 23
0.275
  0
ENDBLK
  8
0
  0
BLOCK
  8
0
  2
LCA2
 70
0
 10
0
 20
0
  0
SOLID
  8
1
 62
7 
 10
0
 20
0
 11
-1.65
 21
-0.525
 12
-1.65
 22
0.525
 13
-1.65
 23
0.525
  0
ENDBLK
  8
0
  0
BLOCK
  8
0
  2
LCA3
 70
0
 10
0
 20
0
  0
SOLID
  8
1
 62
7 
 10
0
 20
0
 11
-2.15
 21
-1.15
 12
-2.15
 22
1.15
 13
-2.15
 23
1.15
  0
ENDBLK
  8
0
  0
BLOCK
  8
0
  2
LCA1R
 70
0
 10
0
 20
0
  0
SOLID
  8
1
 62
7 
 10
0
 20
0
 11
1.4
 21
-0.275
 12
1.4
 22
0.275
 13
1.4
 23
0.275
  0
ENDBLK
  8
0
  0
BLOCK
  8
0
  2
LCA2R
 70
0
 10
0
 20
0
  0
SOLID
  8
1
 62
7 
 10
0
 20
0
 11
1.65
 21
-0.525
 12
1.65
 22
0.525
 13
1.65
 23
0.525
  0
ENDBLK
  8
0
  0
BLOCK
  8
0
  2
LCA3R
 70
0
 10
0
 20
0
  0
SOLID
  8
1
 62
7 
 10
0
 20
0
 11
2.15
 21
-1.15
 12
2.15
 22
1.15
 13
2.15
 23
1.15
  0
ENDBLK
  8
0
  0
BLOCK
  8
0
  2
B1258_00991894
 70
0
 10
0
 20
0
  0
LINE
  8
1
 10
2.99999653351434
 20
-2.49998613405731
 11
2.99999653351434
 21
-6.49998613405731
  0
LINE
  8
1
 10
-9.00000346648566
 20
-2.49998613405731
 11
-9.00000346648566
 21
-6.49998613405731
  0
SOLID
  8
1
 10
-5.00000346648566
 20
4.00001386594269
 11
-5.00000346648566
 21
3.00001386594269
 12
-6.00000346648566
 22
3.00001386594269
 13
-6.00000346648566
 23
3.00001386594269
  0
SOLID
  8
1
 10
-6.00000346648566
 20
1.38659426873744E-05
 11
-5.00000346648566
 21
1.38659426873744E-05
 12
-5.00000346648566
 22
-0.999986134057313
 13
-5.00000346648566
 23
-0.999986134057313
  0
SOLID
  8
1
 10
-7.00000346648566
 20
4.00001386594269
 11
-5.00000346648566
 21
4.00001386594269
 12
-6.00000346648566
 22
3.00001386594269
 13
-6.00000346648566
 23
3.00001386594269
  0
SOLID
  8
1
 10
-6.00000346648566
 20
1.38659426873744E-05
 11
-5.00000346648566
 21
-0.999986134057313
 12
-7.00000346648566
 22
-0.999986134057313
 13
-7.00000346648566
 23
-0.999986134057313
  0
SOLID
  8
1
 10
-7.00000346648566
 20
-0.999986134057313
 11
-7.00000346648566
 21
4.00001386594269
 12
-6.00000346648566
 22
3.00001386594269
 13
-6.00000346648566
 23
3.00001386594269
  0
SOLID
  8
1
 10
-6.00000346648566
 20
3.00001386594269
 11
-6.00000346648566
 21
1.38659426873744E-05
 12
-7.00000346648566
 22
-0.999986134057313
 13
-7.00000346648566
 23
-0.999986134057313
  0
POLYLINE
  8
1
 66
1
  0
VERTEX
  8
1
 10
-10.0000034664857
 20
5.50001386594269
  0
VERTEX
  8
1
 10
3.99999653351434
 20
5.50001386594269
  0
VERTEX
  8
1
 10
3.99999653351434
 20
-2.49998613405731
  0
VERTEX
  8
1
 10
-10.0000034664857
 20
-2.49998613405731
  0
VERTEX
  8
1
 10
-10.0000034664857
 20
5.50001386594269
  0
SEQEND
  8
1
  0
POLYLINE
  8
1
 66
1
  0
VERTEX
  8
1
 10
-8.00000346648566
 20
5.50001386594269
  0
VERTEX
  8
1
 10
-4.00000346648566
 20
5.50001386594269
  0
VERTEX
  8
1
 10
-4.00000346648566
 20
-2.49998613405731
  0
VERTEX
  8
1
 10
-8.00000346648566
 20
-2.49998613405731
  0
VERTEX
  8
1
 10
-8.00000346648566
 20
5.50001386594269
  0
SEQEND
  8
1
  0
POLYLINE
  8
1
 66
1
  0
VERTEX
  8
1
 10
4.00000346648567
 20
-0.500013865942675
  0
VERTEX
  8
1
 10
6.00000346648567
 20
-0.500013865942675
  0
VERTEX
  8
1
 10
7.00000346648566
 20
0.499986134057313
  0
VERTEX
  8
1
 10
8.00000346648566
 20
-0.500013865942675
  0
VERTEX
  8
1
 10
10.0000034664857
 20
-0.500013865942675
  0
VERTEX
  8
1
 10
10.0000034664857
 20
-2.50001386594267
  0
VERTEX
  8
1
 10
8.00000346648566
 20
-2.50001386594267
  0
VERTEX
  8
1
 10
7.00000346648566
 20
-3.50001386594267
  0
VERTEX
  8
1
 10
6.00000346648567
 20
-2.50001386594267
  0
VERTEX
  8
1
 10
3.99999653351433
 20
-2.49998613405731
  0
SEQEND
  8
1
  0
POLYLINE
  8
1
 66
1
  0
VERTEX
  8
1
 10
4.00000346648567
 20
5.49998613405731
  0
VERTEX
  8
1
 10
6.00000346648567
 20
5.49998613405731
  0
VERTEX
  8
1
 10
7.00000346648566
 20
6.49998613405731
  0
VERTEX
  8
1
 10
8.00000346648566
 20
5.49998613405731
  0
VERTEX
  8
1
 10
10.0000034664857
 20
5.49998613405731
  0
VERTEX
  8
1
 10
10.0000034664857
 20
3.49998613405731
  0
VERTEX
  8
1
 10
8.00000346648566
 20
3.49998613405731
  0
VERTEX
  8
1
 10
7.00000346648566
 20
2.49998613405731
  0
VERTEX
  8
1
 10
6.00000346648567
 20
3.49998613405731
  0
VERTEX
  8
1
 10
4.00000346648567
 20
3.49998613405731
  0
SEQEND
  8
1
  0
CIRCLE
  8
CONNECTIONS
 10
-9.00000346648566
 20
-6.49998613405731
 40
0
  0
CIRCLE
  8
CONNECTIONS
 10
2.99999653351434
 20
-6.49998613405731
 40
0
  0
ENDBLK
  8
0
  0
ENDSEC
  0
SECTION
  2
ENTITIES
  0
INSERT
  8
1
  2
B1258_00991894
 10
10.0000034664857
 20
6.49998613405731
  0
ENDSEC
  0
EOF
