  0
SECTION
  2
HEADER
  9
$LIMMIN
 10
0
 20
0
  9
$LIMMAX
 10
52.5
 20
74.25
  9
$EXTMIN
 10
0
 20
38.0321453529001
  9
$EXTMAX
 10
0
 20
20.0027952480783
  0
ENDSEC
  0
SECTION
  2
TABLES
  0
TABLE
  2
LTYPE
 70
9
  0
LTYPE
  2
CONTINUOUS
 70
64
  3
Solid line
 72
65
 73
0
 40
0
  0
LTYPE
  2
DASHED
 70
64
  3
__ __ __ __ __ __ __ __ __
 72
65
 73
2
 40
0.75
 49
0.5
 49
-0.25
  0
LTYPE
  2
DOT
 70
64
  3
...........................
 72
65
 73
2
 40
0.25
 49
0
 49
-0.25
  0
LTYPE
  2
DASHDOT
 70
64
  3
__ . __ . __ . __ . __ . __ . 
 72
65
 73
4
 40
1
 49
0.5
 49
-0.25
 49
0
 49
-0.25
  0
ENDTAB
  0
TABLE
  2
LAYER
 70
10
  0
LAYER
  2
1
 70
0
 62
7
  6
CONTINUOUS
  0
LAYER
  2
CONNECTIONS
 70
0
 62
-7
  6
CONTINUOUS
  0
ENDTAB
  0
ENDSEC
  0
SECTION
  2
BLOCKS
  0
BLOCK
  8
0
  2
TRICON
 70
0
 10
0
 20
0
  0
POLYLINE
  8
1
 70
1
 66
1
 40
0.5
 41
0.5
  0
VERTEX
  8
1
 10
-0.25
 20
0
 42
1
  0
VERTEX
  8
1
 10
0.25
 20
0
 42
1
  0
SEQEND
  8
1
  0
ENDBLK
  8
0
  0
BLOCK
  8
0
  2
TRICONSMALL
 70
0
 10
0
 20
0
  0
POLYLINE
  8
1
 70
1
 66
1
 40
0.25
 41
0.25
  0
VERTEX
  8
1
 10
-0.125
 20
0
 42
1
  0
VERTEX
  8
1
 10
0.125
 20
0
 42
1
  0
SEQEND
  8
1
  0
ENDBLK
  8
0
  0
BLOCK
  8
0
  2
TRICONCIRCLE
 70
0
 10
0
 20
0
  0
CIRCLE
  8
1
 10
0
 20
0
 40
0.5
  0
ENDBLK
  8
0
  0
BLOCK
  8
0
  2
LCBP0
 70
0
 10
0
 20
0
  0
LINE
  8
1
 10
0
 20
-0.46875
 11
0
 21
0.46875
  0
ENDBLK
  8
0
  0
BLOCK
  8
0
  2
LCBP1
 70
0
 10
0
 20
0
  0
LINE
  8
1
 10
0
 20
-0.625
 11
0
 21
0.625
  0
ENDBLK
  8
0
  0
BLOCK
  8
0
  2
LCBP2
 70
0
 10
0
 20
0
  0
LINE
  8
1
 10
0
 20
-0.9375
 11
0
 21
0.9375
  0
ENDBLK
  8
0
  0
BLOCK
  8
0
  2
LCA1
 70
0
 10
0
 20
0
  0
SOLID
  8
1
 62
7 
 10
0
 20
0
 11
-1.4
 21
-0.275
 12
-1.4
 22
0.275
 13
-1.4
 23
0.275
  0
ENDBLK
  8
0
  0
BLOCK
  8
0
  2
LCA2
 70
0
 10
0
 20
0
  0
SOLID
  8
1
 62
7 
 10
0
 20
0
 11
-1.65
 21
-0.525
 12
-1.65
 22
0.525
 13
-1.65
 23
0.525
  0
ENDBLK
  8
0
  0
BLOCK
  8
0
  2
LCA3
 70
0
 10
0
 20
0
  0
SOLID
  8
1
 62
7 
 10
0
 20
0
 11
-2.15
 21
-1.15
 12
-2.15
 22
1.15
 13
-2.15
 23
1.15
  0
ENDBLK
  8
0
  0
BLOCK
  8
0
  2
LCA1R
 70
0
 10
0
 20
0
  0
SOLID
  8
1
 62
7 
 10
0
 20
0
 11
1.4
 21
-0.275
 12
1.4
 22
0.275
 13
1.4
 23
0.275
  0
ENDBLK
  8
0
  0
BLOCK
  8
0
  2
LCA2R
 70
0
 10
0
 20
0
  0
SOLID
  8
1
 62
7 
 10
0
 20
0
 11
1.65
 21
-0.525
 12
1.65
 22
0.525
 13
1.65
 23
0.525
  0
ENDBLK
  8
0
  0
BLOCK
  8
0
  2
LCA3R
 70
0
 10
0
 20
0
  0
SOLID
  8
1
 62
7 
 10
0
 20
0
 11
2.15
 21
-1.15
 12
2.15
 22
1.15
 13
2.15
 23
1.15
  0
ENDBLK
  8
0
  0
BLOCK
  8
0
  2
B1134_00991893
 70
0
 10
0
 20
0
  0
POLYLINE
  8
1
 66
1
  0
VERTEX
  8
1
 10
-15.01607267645
 20
10.0013976240391
  0
VERTEX
  8
1
 10
19.01607267645
 20
10.0013976240391
  0
VERTEX
  8
1
 10
19.01607267645
 20
-6.00139762403913
  0
VERTEX
  8
1
 10
-15.01607267645
 20
-6.00139762403913
  0
VERTEX
  8
1
 10
-15.01607267645
 20
10.0013976240391
  0
SEQEND
  8
1
  0
LINE
  8
1
 10
9.98392732354997
 20
-6.00139762403913
 11
9.98392732354997
 21
-10.0013976240391
  0
LINE
  8
1
 10
-2.01607267645003
 20
-6.00139762403913
 11
-2.01607267645003
 21
-10.0013976240391
  0
LINE
  8
1
 10
-15.01607267645
 20
4.99860237596087
 11
-19.01607267645
 21
4.99860237596087
  0
LINE
  8
1
 10
-15.01607267645
 20
-1.00139762403913
 11
-19.01607267645
 21
-1.00139762403913
  0
LINE
  8
1
 10
9.98392732354997
 20
-6.00139762403913
 11
9.98392732354997
 21
-2.00139762403913
  0
LINE
  8
1
 10
-2.01607267645003
 20
-6.00139762403913
 11
-2.01607267645003
 21
-2.00139762403913
  0
ARC
  8
1
 10
-13.01607267645
 20
1.99860237596087
 40
9
 50
330
 51
30
  0
INSERT
  8
1
  2
LCA1
 10
-5.30156697013102
 20
6.63394505015136
 50
120.5
  0
INSERT
  8
1
  2
LCA1R
 10
-5.22184404239008
 20
-2.50139762403914
 50
60.5
  0
POLYLINE
  8
1
 66
1
  0
VERTEX
  8
1
 10
-7.01607267645003
 20
2.99860237596087
  0
VERTEX
  8
1
 10
-1.01607267645003
 20
2.99860237596087
  0
VERTEX
  8
1
 10
-1.01607267645003
 20
0.998602375960868
  0
VERTEX
  8
1
 10
-7.01607267645003
 20
0.998602375960868
  0
SEQEND
  8
1
  0
ARC
  8
1
 10
-13.01607267645
 20
1.99860237596087
 40
6
 50
270
 51
90
  0
LINE
  8
1
 10
-13.01607267645
 20
7.99860237596087
 11
-13.01607267645
 21
-4.00139762403913
  0
LINE
  8
1
 10
-17.01607267645
 20
-1.00139762403913
 11
-13.01607267645
 21
-1.00139762403913
  0
LINE
  8
1
 10
-17.01607267645
 20
4.99860237596087
 11
-13.01607267645
 21
4.99860237596087
  0
LINE
  8
1
 10
1.98392732354997
 20
0.498602375960868
 11
1.98392732354997
 21
-0.501397624039132
  0
SOLID
  8
1
 10
1.98392732354997
 20
0.498602375960868
 11
1.98392732354997
 21
-0.501397624039132
 12
-0.0160726764500296
 22
-0.501397624039132
 13
-0.0160726764500296
 23
-0.501397624039132
  0
SOLID
  8
1
 10
-0.0160726764500296
 20
4.49860237596087
 11
1.98392732354997
 21
4.49860237596087
 12
1.98392732354997
 22
3.49860237596087
 13
1.98392732354997
 23
3.49860237596087
  0
SOLID
  8
1
 10
0.98392732354997
 20
0.498602375960868
 11
1.98392732354997
 21
0.498602375960868
 12
-0.0160726764500296
 22
-0.501397624039132
 13
-0.0160726764500296
 23
-0.501397624039132
  0
SOLID
  8
1
 10
-0.0160726764500296
 20
4.49860237596087
 11
1.98392732354997
 21
3.49860237596087
 12
0.98392732354997
 22
3.49860237596087
 13
0.98392732354997
 23
3.49860237596087
  0
SOLID
  8
1
 10
0.98392732354997
 20
3.49860237596087
 11
0.98392732354997
 21
0.498602375960868
 12
-0.0160726764500296
 22
-0.501397624039132
 13
-0.0160726764500296
 23
-0.501397624039132
  0
SOLID
  8
1
 10
-0.0160726764500296
 20
-0.501397624039132
 11
-0.0160726764500296
 21
4.49860237596087
 12
0.98392732354997
 22
3.49860237596087
 13
0.98392732354997
 23
3.49860237596087
  0
LINE
  8
1
 10
-3.01607267645003
 20
5.99860237596087
 11
-3.01607267645003
 21
2.96427236488667
  0
LINE
  8
1
 10
-3.01607267645003
 20
0.970916883159084
 11
-3.01607267645003
 21
-2.00139762403913
  0
LINE
  8
1
 10
10.98392732355
 20
5.99860237596087
 11
10.98392732355
 21
-2.00139762403913
  0
LINE
  8
1
 10
-3.01607267645003
 20
5.99860237596087
 11
10.98392732355
 21
5.99860237596087
  0
LINE
  8
1
 10
-3.01607267645003
 20
-2.00139762403913
 11
10.98392732355
 21
-2.00139762403913
  0
POLYLINE
  8
1
 66
1
  0
VERTEX
  8
1
 10
-1.01607267645003
 20
5.99860237596087
  0
VERTEX
  8
1
 10
2.98392732354997
 20
5.99860237596087
  0
VERTEX
  8
1
 10
2.98392732354997
 20
-2.00139762403913
  0
VERTEX
  8
1
 10
-1.01607267645003
 20
-2.00139762403913
  0
VERTEX
  8
1
 10
-1.01607267645003
 20
5.99860237596087
  0
SEQEND
  8
1
  0
POLYLINE
  8
1
 66
1
  0
VERTEX
  8
1
 10
10.9839342565212
 20
-0.00142535592450344
  0
VERTEX
  8
1
 10
12.9839342565212
 20
-0.00142535592450344
  0
VERTEX
  8
1
 10
13.9839342565212
 20
0.998574644075493
  0
VERTEX
  8
1
 10
14.9839342565212
 20
-0.00142535592450344
  0
VERTEX
  8
1
 10
16.9839342565212
 20
-0.00142535592450344
  0
VERTEX
  8
1
 10
16.9839342565212
 20
-2.0014253559245
  0
VERTEX
  8
1
 10
14.9839342565212
 20
-2.0014253559245
  0
VERTEX
  8
1
 10
13.9839342565212
 20
-3.0014253559245
  0
VERTEX
  8
1
 10
12.9839342565212
 20
-2.0014253559245
  0
VERTEX
  8
1
 10
10.98392732355
 20
-2.00139762403913
  0
SEQEND
  8
1
  0
POLYLINE
  8
1
 66
1
  0
VERTEX
  8
1
 10
10.9839342565212
 20
5.99857464407549
  0
VERTEX
  8
1
 10
12.9839342565212
 20
5.99857464407549
  0
VERTEX
  8
1
 10
13.9839342565212
 20
6.99857464407549
  0
VERTEX
  8
1
 10
14.9839342565212
 20
5.99857464407549
  0
VERTEX
  8
1
 10
16.9839342565212
 20
5.99857464407549
  0
VERTEX
  8
1
 10
16.9839342565212
 20
3.99857464407549
  0
VERTEX
  8
1
 10
14.9839342565212
 20
3.99857464407549
  0
VERTEX
  8
1
 10
13.9839342565212
 20
2.99857464407549
  0
VERTEX
  8
1
 10
12.9839342565212
 20
3.99857464407549
  0
VERTEX
  8
1
 10
10.9839342565212
 20
3.99857464407549
  0
SEQEND
  8
1
  0
CIRCLE
  8
CONNECTIONS
 10
-2.01607267645003
 20
-10.0013976240391
 40
0
  0
CIRCLE
  8
CONNECTIONS
 10
9.98392732354997
 20
-10.0013976240391
 40
0
  0
CIRCLE
  8
CONNECTIONS
 10
-19.01607267645
 20
-1.00139762403913
 40
0
  0
CIRCLE
  8
CONNECTIONS
 10
-19.01607267645
 20
4.99860237596087
 40
0
  0
ENDBLK
  8
0
  0
ENDSEC
  0
SECTION
  2
ENTITIES
  0
INSERT
  8
1
  2
B1134_00991893
 10
19.01607267645
 20
10.0013976240391
  0
ENDSEC
  0
EOF
