  0
SECTION
  2
HEADER
  9
$LIMMIN
 10
0
 20
0
  9
$LIMMAX
 10
52.5
 20
74.25
  9
$EXTMIN
 10
0
 20
37.8291343053182
  9
$EXTMAX
 10
0
 20
15.9999995231628
  0
ENDSEC
  0
SECTION
  2
TABLES
  0
TABLE
  2
LTYPE
 70
9
  0
LTYPE
  2
CONTINUOUS
 70
64
  3
Solid line
 72
65
 73
0
 40
0
  0
LTYPE
  2
DASHED
 70
64
  3
__ __ __ __ __ __ __ __ __
 72
65
 73
2
 40
0.75
 49
0.5
 49
-0.25
  0
LTYPE
  2
DOT
 70
64
  3
...........................
 72
65
 73
2
 40
0.25
 49
0
 49
-0.25
  0
LTYPE
  2
DASHDOT
 70
64
  3
__ . __ . __ . __ . __ . __ . 
 72
65
 73
4
 40
1
 49
0.5
 49
-0.25
 49
0
 49
-0.25
  0
ENDTAB
  0
TABLE
  2
LAYER
 70
10
  0
LAYER
  2
1
 70
0
 62
7
  6
CONTINUOUS
  0
LAYER
  2
CONNECTIONS
 70
0
 62
-7
  6
CONTINUOUS
  0
ENDTAB
  0
ENDSEC
  0
SECTION
  2
BLOCKS
  0
BLOCK
  8
0
  2
TRICON
 70
0
 10
0
 20
0
  0
POLYLINE
  8
1
 70
1
 66
1
 40
0.5
 41
0.5
  0
VERTEX
  8
1
 10
-0.25
 20
0
 42
1
  0
VERTEX
  8
1
 10
0.25
 20
0
 42
1
  0
SEQEND
  8
1
  0
ENDBLK
  8
0
  0
BLOCK
  8
0
  2
TRICONSMALL
 70
0
 10
0
 20
0
  0
POLYLINE
  8
1
 70
1
 66
1
 40
0.25
 41
0.25
  0
VERTEX
  8
1
 10
-0.125
 20
0
 42
1
  0
VERTEX
  8
1
 10
0.125
 20
0
 42
1
  0
SEQEND
  8
1
  0
ENDBLK
  8
0
  0
BLOCK
  8
0
  2
TRICONCIRCLE
 70
0
 10
0
 20
0
  0
CIRCLE
  8
1
 10
0
 20
0
 40
0.5
  0
ENDBLK
  8
0
  0
BLOCK
  8
0
  2
LCBP0
 70
0
 10
0
 20
0
  0
LINE
  8
1
 10
0
 20
-0.46875
 11
0
 21
0.46875
  0
ENDBLK
  8
0
  0
BLOCK
  8
0
  2
LCBP1
 70
0
 10
0
 20
0
  0
LINE
  8
1
 10
0
 20
-0.625
 11
0
 21
0.625
  0
ENDBLK
  8
0
  0
BLOCK
  8
0
  2
LCBP2
 70
0
 10
0
 20
0
  0
LINE
  8
1
 10
0
 20
-0.9375
 11
0
 21
0.9375
  0
ENDBLK
  8
0
  0
BLOCK
  8
0
  2
LCA1
 70
0
 10
0
 20
0
  0
SOLID
  8
1
 62
7 
 10
0
 20
0
 11
-1.4
 21
-0.275
 12
-1.4
 22
0.275
 13
-1.4
 23
0.275
  0
ENDBLK
  8
0
  0
BLOCK
  8
0
  2
LCA2
 70
0
 10
0
 20
0
  0
SOLID
  8
1
 62
7 
 10
0
 20
0
 11
-1.65
 21
-0.525
 12
-1.65
 22
0.525
 13
-1.65
 23
0.525
  0
ENDBLK
  8
0
  0
BLOCK
  8
0
  2
LCA3
 70
0
 10
0
 20
0
  0
SOLID
  8
1
 62
7 
 10
0
 20
0
 11
-2.15
 21
-1.15
 12
-2.15
 22
1.15
 13
-2.15
 23
1.15
  0
ENDBLK
  8
0
  0
BLOCK
  8
0
  2
LCA1R
 70
0
 10
0
 20
0
  0
SOLID
  8
1
 62
7 
 10
0
 20
0
 11
1.4
 21
-0.275
 12
1.4
 22
0.275
 13
1.4
 23
0.275
  0
ENDBLK
  8
0
  0
BLOCK
  8
0
  2
LCA2R
 70
0
 10
0
 20
0
  0
SOLID
  8
1
 62
7 
 10
0
 20
0
 11
1.65
 21
-0.525
 12
1.65
 22
0.525
 13
1.65
 23
0.525
  0
ENDBLK
  8
0
  0
BLOCK
  8
0
  2
LCA3R
 70
0
 10
0
 20
0
  0
SOLID
  8
1
 62
7 
 10
0
 20
0
 11
2.15
 21
-1.15
 12
2.15
 22
1.15
 13
2.15
 23
1.15
  0
ENDBLK
  8
0
  0
BLOCK
  8
0
  2
B1747_00991887
 70
0
 10
0
 20
0
  0
LINE
  8
1
 10
-15.2557875315348
 20
1
 11
-10.2557875315348
 21
6
  0
POLYLINE
  8
1
 66
1
  0
VERTEX
  8
1
 10
-15.2557875315348
 20
6
  0
VERTEX
  8
1
 10
-5.25578753153483
 20
6
  0
VERTEX
  8
1
 10
-5.25578753153483
 20
-4
  0
VERTEX
  8
1
 10
-15.2557875315348
 20
-4
  0
VERTEX
  8
1
 10
-15.2557875315348
 20
6
  0
SEQEND
  8
1
  0
LINE
  8
1
 10
-5.25578753153483
 20
1
 11
-3.25578753153483
 21
1
  0
LINE
  8
1
 10
-5.25578753153483
 20
5
 11
-3.25578753153483
 21
5
  0
TEXT
  8
1
 40
1.79999985694885
 41
0.75
  1
P
  7
STANDARD
 72
2
 10
-16.3386418024699
 20
3.92474030653636
 11
-16.3386418024699
 21
3.92474030653636
  0
LINE
  8
1
 10
-15.2557875315348
 20
3.5
 11
-14.2557875315348
 21
3
  0
LINE
  8
1
 10
-14.2557875315348
 20
3
 11
-15.2557875315348
 21
2.5
  0
LINE
  8
1
 10
-15.2557875315348
 20
3.5
 11
-15.2557875315348
 21
2.5
  0
LINE
  8
1
 10
-18.2557875315348
 20
3
 11
-15.2557875315348
 21
3
  0
LINE
  8
1
  6
DOT
 10
-9.00578753153483
 20
3
 11
-7.70578308333039
 21
3
  0
SOLID
  8
1
 10
-8.50578753153483
 20
5
 11
-9.11523900374883
 21
4.49644374394097
 12
-8.50578753153483
 22
5
 13
-8.69121495567063
 23
4.23148411182437
  0
LINE
  8
1
 10
-10.5057875315348
 20
2.9
 11
-10.0057875315348
 21
2.5
  0
LINE
  8
1
 10
-10.5057875315348
 20
3.1
 11
-10.0057875315348
 21
3.5
  0
LINE
  8
1
 10
-11.0057875315348
 20
1
 11
-8.50578753153483
 21
5
  0
LINE
  8
1
 10
-10.5057875315348
 20
2
 11
-10.5057875315348
 21
1
  0
POLYLINE
  8
1
 66
1
  0
VERTEX
  8
1
 10
-12.0057875315348
 20
4
  0
VERTEX
  8
1
 10
-9.00578753153483
 20
4
  0
VERTEX
  8
1
 10
-9.00578753153483
 20
2
  0
VERTEX
  8
1
 10
-12.0057875315348
 20
2
  0
VERTEX
  8
1
 10
-12.0057875315348
 20
4
  0
SEQEND
  8
1
  0
LINE
  8
1
 10
-10.5057875315348
 20
3.4
 11
-10.5057875315348
 21
2.6
  0
LINE
  8
1
 10
-11.5057875315348
 20
3
 11
-10.5057875315348
 21
3
  0
LINE
  8
1
 10
-10.5057875315348
 20
4
 11
-10.5057875315348
 21
5
  0
TEXT
  8
1
 40
1.8
 41
0.75
  1
PNP
  7
STANDARD
 72
1
 73
3
 10
-10.2557875315348
 20
-4.99947948455811
 11
-10.2557875315348
 21
-4.99947948455811
  0
LINE
  8
1
 10
-8.25578753153483
 20
4.5
 11
-7.25578753153483
 21
2
  0
LINE
  8
1
 10
-8.25578753153483
 20
2
 11
-6.25578753153483
 21
2
  0
LINE
  8
1
 10
-7.25578753153483
 20
2
 11
-7.25578753153483
 21
1
  0
LINE
  8
1
 10
-7.25578753153483
 20
4
 11
-7.25578753153483
 21
5
  0
LINE
  8
1
 10
-7.25578753153483
 20
5
 11
-5.25578753153483
 21
5
  0
LINE
  8
1
 10
-7.25578753153483
 20
1
 11
-5.25578753153483
 21
1
  0
TEXT
  8
1
 40
1.12499992847443
 41
0.75
  1
L
  7
STANDARD
 72
1
 10
6.9576784769694
 20
1.9059246023496
 11
6.9576784769694
 21
1.9059246023496
  0
TEXT
  8
1
 40
1.57499985694885
 41
0.75
  1
R
  7
STANDARD
 72
1
 10
5.74421246846517
 20
1.78749992847443
 11
5.74421246846517
 21
1.78749992847443
  0
LINE
  8
1
 10
0.144212468465168
 20
5
 11
10.7442124684652
 21
5
  0
LINE
  8
1
 10
4.24421246846517
 20
1
 11
0.144212468465165
 21
1
  0
POLYLINE
  8
1
 66
1
  0
VERTEX
  8
1
 10
4.24421246846517
 20
1.5
  0
VERTEX
  8
1
 10
8.24421246846517
 20
1.5
  0
VERTEX
  8
1
 10
8.24421246846517
 20
0.5
  0
VERTEX
  8
1
 10
4.24421246846517
 20
0.5
  0
VERTEX
  8
1
 10
4.24421246846517
 20
1.5
  0
SEQEND
  8
1
  0
LINE
  8
1
 10
8.24421246846517
 20
1
 11
9.24421246846517
 21
1
  0
LINE
  8
1
 10
0.144212468465165
 20
-3
 11
8.99421246846517
 21
-3
  0
CIRCLE
  8
1
 10
9.24421246846518
 20
-2.99999999999999
 40
0.25
  0
LINE
  8
1
 10
9.54421246846516
 20
-3
 11
10.7442124684652
 21
-3
  0
LINE
  8
1
 10
9.24421246846517
 20
1
 11
9.24421246846517
 21
-2.75
  0
LINE
  8
1
 10
-5.25578753153483
 20
-3
 11
-0.655787531534832
 21
-3
  0
LINE
  8
1
 10
-3.25578753153483
 20
1
 11
-0.655787531534832
 21
1
  0
LINE
  8
1
 10
-3.25578753153483
 20
5
 11
-0.655787531534832
 21
5
  0
LINE
  8
1
 10
-0.755787531534831
 20
-3
 11
-0.655787531534829
 21
-3
  0
CIRCLE
  8
1
 10
-0.255787531534831
 20
-3
 40
0.4
  0
CIRCLE
  8
1
 10
-0.255787531534831
 20
1
 40
0.4
  0
CIRCLE
  8
1
 10
-0.255787531534831
 20
5
 40
0.4
  0
TEXT
  8
1
 40
1.8
 41
0.75
  1
BU
  7
STANDARD
 10
-5.25578753153483
 20
-2.55052051544189
  0
TEXT
  8
1
 40
1.8
 41
0.75
  1
BK
  7
STANDARD
 10
-5.25578753153483
 20
1.44947948455811
  0
TEXT
  8
1
 40
1.8
 41
0.75
  1
BN
  7
STANDARD
 10
-5.25578753153483
 20
5.44947948455811
  0
TEXT
  8
1
 40
1.8
 41
0.75
  1
0V
  7
STANDARD
 10
11.7442124684652
 20
-4.00104103088379
  0
TEXT
  8
1
 40
1.8
 41
0.75
  1
+24V
  7
STANDARD
 10
11.2273036638896
 20
4.17473974227905
  0
ENDBLK
  8
0
  0
ENDSEC
  0
SECTION
  2
ENTITIES
  0
INSERT
  8
1
  2
B1747_00991887
 10
18.9145671526591
 20
7.99999976158142
  0
ENDSEC
  0
EOF
