  0
SECTION
  2
HEADER
  9
$LIMMIN
 10
0
 20
0
  9
$LIMMAX
 10
52.5
 20
74.25
  9
$EXTMIN
 10
0
 20
42.0445782375336
  9
$EXTMAX
 10
0
 20
16.2802080790202
  0
ENDSEC
  0
SECTION
  2
TABLES
  0
TABLE
  2
LTYPE
 70
9
  0
LTYPE
  2
CONTINUOUS
 70
64
  3
Solid line
 72
65
 73
0
 40
0
  0
LTYPE
  2
DASHED
 70
64
  3
__ __ __ __ __ __ __ __ __
 72
65
 73
2
 40
0.75
 49
0.5
 49
-0.25
  0
LTYPE
  2
DOT
 70
64
  3
...........................
 72
65
 73
2
 40
0.25
 49
0
 49
-0.25
  0
LTYPE
  2
DASHDOT
 70
64
  3
__ . __ . __ . __ . __ . __ . 
 72
65
 73
4
 40
1
 49
0.5
 49
-0.25
 49
0
 49
-0.25
  0
ENDTAB
  0
TABLE
  2
LAYER
 70
10
  0
LAYER
  2
1
 70
0
 62
7
  6
CONTINUOUS
  0
LAYER
  2
CONNECTIONS
 70
0
 62
-7
  6
CONTINUOUS
  0
ENDTAB
  0
ENDSEC
  0
SECTION
  2
BLOCKS
  0
BLOCK
  8
0
  2
TRICON
 70
0
 10
0
 20
0
  0
POLYLINE
  8
1
 70
1
 66
1
 40
0.5
 41
0.5
  0
VERTEX
  8
1
 10
-0.25
 20
0
 42
1
  0
VERTEX
  8
1
 10
0.25
 20
0
 42
1
  0
SEQEND
  8
1
  0
ENDBLK
  8
0
  0
BLOCK
  8
0
  2
TRICONSMALL
 70
0
 10
0
 20
0
  0
POLYLINE
  8
1
 70
1
 66
1
 40
0.25
 41
0.25
  0
VERTEX
  8
1
 10
-0.125
 20
0
 42
1
  0
VERTEX
  8
1
 10
0.125
 20
0
 42
1
  0
SEQEND
  8
1
  0
ENDBLK
  8
0
  0
BLOCK
  8
0
  2
TRICONCIRCLE
 70
0
 10
0
 20
0
  0
CIRCLE
  8
1
 10
0
 20
0
 40
0.5
  0
ENDBLK
  8
0
  0
BLOCK
  8
0
  2
LCBP0
 70
0
 10
0
 20
0
  0
LINE
  8
1
 10
0
 20
-0.46875
 11
0
 21
0.46875
  0
ENDBLK
  8
0
  0
BLOCK
  8
0
  2
LCBP1
 70
0
 10
0
 20
0
  0
LINE
  8
1
 10
0
 20
-0.625
 11
0
 21
0.625
  0
ENDBLK
  8
0
  0
BLOCK
  8
0
  2
LCBP2
 70
0
 10
0
 20
0
  0
LINE
  8
1
 10
0
 20
-0.9375
 11
0
 21
0.9375
  0
ENDBLK
  8
0
  0
BLOCK
  8
0
  2
LCA1
 70
0
 10
0
 20
0
  0
SOLID
  8
1
 62
7 
 10
0
 20
0
 11
-1.4
 21
-0.275
 12
-1.4
 22
0.275
 13
-1.4
 23
0.275
  0
ENDBLK
  8
0
  0
BLOCK
  8
0
  2
LCA2
 70
0
 10
0
 20
0
  0
SOLID
  8
1
 62
7 
 10
0
 20
0
 11
-1.65
 21
-0.525
 12
-1.65
 22
0.525
 13
-1.65
 23
0.525
  0
ENDBLK
  8
0
  0
BLOCK
  8
0
  2
LCA3
 70
0
 10
0
 20
0
  0
SOLID
  8
1
 62
7 
 10
0
 20
0
 11
-2.15
 21
-1.15
 12
-2.15
 22
1.15
 13
-2.15
 23
1.15
  0
ENDBLK
  8
0
  0
BLOCK
  8
0
  2
LCA1R
 70
0
 10
0
 20
0
  0
SOLID
  8
1
 62
7 
 10
0
 20
0
 11
1.4
 21
-0.275
 12
1.4
 22
0.275
 13
1.4
 23
0.275
  0
ENDBLK
  8
0
  0
BLOCK
  8
0
  2
LCA2R
 70
0
 10
0
 20
0
  0
SOLID
  8
1
 62
7 
 10
0
 20
0
 11
1.65
 21
-0.525
 12
1.65
 22
0.525
 13
1.65
 23
0.525
  0
ENDBLK
  8
0
  0
BLOCK
  8
0
  2
LCA3R
 70
0
 10
0
 20
0
  0
SOLID
  8
1
 62
7 
 10
0
 20
0
 11
2.15
 21
-1.15
 12
2.15
 22
1.15
 13
2.15
 23
1.15
  0
ENDBLK
  8
0
  0
BLOCK
  8
0
  2
B4020_00991868
 70
0
 10
0
 20
0
  0
POLYLINE
  8
1
 66
1
  0
VERTEX
  8
1
 10
-20.8726161575317
 20
5.8598960240682
  0
VERTEX
  8
1
 10
-6.87261615753174
 20
5.8598960240682
  0
VERTEX
  8
1
 10
-6.87261615753174
 20
-8.1401039759318
  0
VERTEX
  8
1
 10
-20.8726161575317
 20
-8.1401039759318
  0
VERTEX
  8
1
 10
-20.8726161575317
 20
5.8598960240682
  0
SEQEND
  8
1
  0
TEXT
  8
1
 40
1.44
 41
0.75
  1
R
  7
STANDARD
 73
2
 10
8.18409348805745
 20
2.55968807220459
 11
8.18409348805745
 21
2.55968807220459
  0
TEXT
  8
1
 40
0.9
 41
0.75
  1
L
  7
STANDARD
 73
2
 10
10.172035005259
 20
2.17990954500452
 11
10.172035005259
 21
2.17990954500452
  0
TEXT
  8
1
 40
0.9
 41
0.75
  1
L
  7
STANDARD
 73
2
 10
8.89203500525896
 20
-1.82009045499548
 11
8.89203500525896
 21
-1.82009045499548
  0
TEXT
  8
1
 40
1.44
 41
0.75
  1
R
  7
STANDARD
 73
2
 10
6.90409348805746
 20
-1.44031192779541
 11
6.90409348805746
 21
-1.44031192779541
  0
TEXT
  8
1
 40
1.4174998998642
 41
0.75
  1
G
  7
STANDARD
 10
-21.0222892379761
 20
2.96096401611964
  0
TEXT
  8
1
 40
1.68
 41
0.75
  1
0V
  7
STANDARD
 72
1
 73
2
 10
18.6053320948283
 20
-6.48957144419352
 11
18.6053320948283
 21
-6.48957144419352
  0
TEXT
  8
1
 40
1.44
 41
0.75
  1
+24V
  7
STANDARD
 72
1
 73
2
 10
17.9473838424683
 20
5.2598960240682
 11
17.9473838424683
 21
5.2598960240682
  0
TEXT
  8
1
 40
1.68
 41
0.75
  1
3
  7
STANDARD
 72
1
 73
2
 10
-4.53253401438395
 20
-4.98957144419352
 11
-4.53253401438395
 21
-4.98957144419352
  0
TEXT
  8
1
 40
1.68
 41
0.75
  1
2
  7
STANDARD
 72
1
 73
2
 10
-4.45253401438395
 20
-0.989571444193521
 11
-4.45253401438395
 21
-0.989571444193521
  0
TEXT
  8
1
 40
1.68
 41
0.75
  1
4
  7
STANDARD
 72
1
 73
2
 10
-4.53253401438395
 20
3.01042855580648
 11
-4.53253401438395
 21
3.01042855580648
  0
TEXT
  8
1
 40
1.44
 41
0.75
  1
1
  7
STANDARD
 10
-6.41870657602946
 20
6.09968807220459
  0
TEXT
  8
1
 40
1.68
 41
0.75
  1
BU
  7
STANDARD
 72
1
 73
2
 10
1.53818117777507
 20
-5.2401039759318
 11
1.53818117777507
 21
-5.2401039759318
  0
TEXT
  8
1
 40
1.47
 41
0.75
  1
WH
  7
STANDARD
 72
1
 73
2
 10
1.33548890590668
 20
-1.5401039759318
 11
1.33548890590668
 21
-1.5401039759318
  0
TEXT
  8
1
 40
1.68
 41
0.75
  1
BK
  7
STANDARD
 72
1
 73
2
 10
1.44521820068359
 20
2.7598960240682
 11
1.44521820068359
 21
2.7598960240682
  0
TEXT
  8
1
 40
1.44
 41
0.75
  1
BN
  7
STANDARD
 73
2
 10
-0.360954360961912
 20
6.7598960240682
 11
-0.360954360961912
 21
6.7598960240682
  0
LINE
  8
1
 10
-20.8726161575317
 20
-1.1401039759318
 11
-13.8726161575317
 21
5.8598960240682
  0
LINE
  8
1
 10
0.127383842468262
 20
-7.1401039759318
 11
15.1273838424683
 21
-7.1401039759318
  0
LINE
  8
1
 10
6.12738384246826
 20
-3.1401039759318
 11
0.127383842468262
 21
-3.1401039759318
  0
LINE
  8
1
 10
7.12738384246826
 20
0.859896024068197
 11
0.127383842468262
 21
0.859896024068197
  0
LINE
  8
1
 10
0.127383842468262
 20
4.8598960240682
 11
15.1273838424683
 21
4.8598960240682
  0
POLYLINE
  8
1
 70
1
 66
1
 40
0.5
 41
0.5
  0
VERTEX
  8
1
 10
10.8668884604363
 20
-7.14556157458838
 42
1
  0
VERTEX
  8
1
 10
11.3668884604363
 20
-7.14556157458838
 42
1
  0
SEQEND
  8
1
  0
POLYLINE
  8
1
 70
1
 66
1
 40
0.5
 41
0.5
  0
VERTEX
  8
1
 10
12.889138670344
 20
-7.14052379121308
 42
1
  0
VERTEX
  8
1
 10
13.389138670344
 20
-7.14052379121308
 42
1
  0
SEQEND
  8
1
  0
LINE
  8
1
 10
11.1273838424683
 20
-7.04010397593181
 11
11.1273838424683
 21
-3.24010397593181
  0
LINE
  8
1
 10
11.1273838424683
 20
0.859896024068197
 11
13.1273838424683
 21
0.859896024068197
  0
LINE
  8
1
 10
13.1273838424683
 20
-6.94010397593181
 11
13.1273838424683
 21
0.859896024068197
  0
LINE
  8
1
 10
10.1289433218827
 20
-3.14228953744169
 11
11.1289433218827
 21
-3.14228953744169
  0
LINE
  8
1
 10
-7.87261615753174
 20
-3.1401039759318
 11
-6.87261615753174
 21
-3.1401039759318
  0
POLYLINE
  8
1
 66
1
  0
VERTEX
  8
1
 10
-9.87261615753174
 20
-2.1401039759318
  0
VERTEX
  8
1
 10
-9.87261615753174
 20
-4.1401039759318
  0
VERTEX
  8
1
 10
-7.87261615753174
 20
-3.1401039759318
  0
VERTEX
  8
1
 10
-9.87261615753174
 20
-2.1401039759318
  0
SEQEND
  8
1
  0
LINE
  8
1
 10
-7.87261615753174
 20
0.859896024068197
 11
-6.87261615753174
 21
0.859896024068197
  0
POLYLINE
  8
1
 66
1
  0
VERTEX
  8
1
 10
-9.87261615753174
 20
1.8598960240682
  0
VERTEX
  8
1
 10
-9.87261615753174
 20
-0.140103975931805
  0
VERTEX
  8
1
 10
-7.87261615753174
 20
0.859896024068195
  0
VERTEX
  8
1
 10
-9.87261615753174
 20
1.8598960240682
  0
SEQEND
  8
1
  0
LINE
  8
1
 10
-6.87261615753174
 20
4.8598960240682
 11
-2.87261615753174
 21
4.8598960240682
  0
LINE
  8
1
 10
-6.87261615753174
 20
-7.1401039759318
 11
-2.87261615753174
 21
-7.1401039759318
  0
LINE
  8
1
 10
-6.87261615753174
 20
-3.1401039759318
 11
-2.87261615753174
 21
-3.1401039759318
  0
LINE
  8
1
 10
-6.87261615753174
 20
0.859896024068197
 11
-2.87261615753174
 21
0.859896024068197
  0
LINE
  8
1
 10
-0.622616157531738
 20
4.8598960240682
 11
0.127383842468262
 21
4.8598960240682
  0
ARC
  8
1
 10
-1.62261615753174
 20
4.8598960240682
 40
1
 50
270
 51
90
  0
SOLID
  8
1
 10
-2.87261615753174
 20
5.1098960240682
 11
-1.37261615753174
 21
5.1098960240682
 12
-2.87261615753174
 22
4.6098960240682
 13
-1.37261615753174
 23
4.6098960240682
  0
SOLID
  8
1
 10
-1.37261615753174
 20
4.6098960240682
 11
-2.87261615753174
 21
4.6098960240682
 12
-2.87261615753174
 22
4.6098960240682
 13
-2.87261615753174
 23
5.1098960240682
  0
LINE
  8
1
 10
-0.622616157531738
 20
0.859896024068197
 11
0.127383842468262
 21
0.859896024068197
  0
ARC
  8
1
 10
-1.62261615753174
 20
0.859896024068197
 40
1
 50
270
 51
90
  0
SOLID
  8
1
 10
-2.87261615753174
 20
1.1098960240682
 11
-1.37261615753174
 21
1.1098960240682
 12
-2.87261615753174
 22
0.609896024068197
 13
-1.37261615753174
 23
0.609896024068197
  0
SOLID
  8
1
 10
-1.37261615753174
 20
0.609896024068197
 11
-2.87261615753174
 21
0.609896024068197
 12
-2.87261615753174
 22
0.609896024068197
 13
-2.87261615753174
 23
1.1098960240682
  0
LINE
  8
1
 10
-0.622616157531738
 20
-3.1401039759318
 11
0.127383842468262
 21
-3.1401039759318
  0
ARC
  8
1
 10
-1.62261615753174
 20
-3.1401039759318
 40
1
 50
270
 51
90
  0
SOLID
  8
1
 10
-2.87261615753174
 20
-2.8901039759318
 11
-1.37261615753174
 21
-2.8901039759318
 12
-2.87261615753174
 22
-3.3901039759318
 13
-1.37261615753174
 23
-3.3901039759318
  0
SOLID
  8
1
 10
-1.37261615753174
 20
-3.3901039759318
 11
-2.87261615753174
 21
-3.3901039759318
 12
-2.87261615753174
 22
-3.3901039759318
 13
-2.87261615753174
 23
-2.8901039759318
  0
LINE
  8
1
 10
-0.622616157531738
 20
-7.1401039759318
 11
0.127383842468262
 21
-7.1401039759318
  0
ARC
  8
1
 10
-1.62261615753174
 20
-7.1401039759318
 40
1
 50
270
 51
90
  0
SOLID
  8
1
 10
-2.87261615753174
 20
-6.8901039759318
 11
-1.37261615753174
 21
-6.8901039759318
 12
-2.87261615753174
 22
-7.3901039759318
 13
-1.37261615753174
 23
-7.3901039759318
  0
SOLID
  8
1
 10
-1.37261615753174
 20
-7.3901039759318
 11
-2.87261615753174
 21
-7.3901039759318
 12
-2.87261615753174
 22
-7.3901039759318
 13
-2.87261615753174
 23
-6.8901039759318
  0
TEXT
  8
1
 40
1.44
 41
0.75
  1
I
  7
STANDARD
 72
2
 73
2
 10
-13.3726161575317
 20
-3.1401039759318
 11
-13.3726161575317
 21
-3.1401039759318
  0
LINE
  8
1
 10
-10.9726161575317
 20
-2.3401039759318
 11
-13.3726161575317
 21
-3.9401039759318
  0
LINE
  8
1
 10
-13.3726161575317
 20
-3.9401039759318
 11
-10.9726161575317
 21
-3.9401039759318
  0
LINE
  8
1
 10
-13.3726161575317
 20
-1.9401039759318
 11
-13.3726161575317
 21
-3.9401039759318
  0
TEXT
  8
1
 40
1.44
 41
0.75
  1
U
  7
STANDARD
 72
2
 73
2
 10
-13.3726161575317
 20
0.859896024068196
 11
-13.3726161575317
 21
0.859896024068196
  0
LINE
  8
1
 10
-10.9726161575317
 20
1.6598960240682
 11
-13.3726161575317
 21
0.0598960240681959
  0
LINE
  8
1
 10
-13.3726161575317
 20
0.0598960240681959
 11
-10.9726161575317
 21
0.0598960240681959
  0
LINE
  8
1
 10
-13.3726161575317
 20
2.0598960240682
 11
-13.3726161575317
 21
0.0598960240681959
  0
POLYLINE
  8
1
 66
1
  0
VERTEX
  8
1
 10
6.12738384246826
 20
-2.6401039759318
  0
VERTEX
  8
1
 10
10.1273838424683
 20
-2.6401039759318
  0
VERTEX
  8
1
 10
10.1273838424683
 20
-3.6401039759318
  0
VERTEX
  8
1
 10
6.12738384246826
 20
-3.6401039759318
  0
VERTEX
  8
1
 10
6.12738384246826
 20
-2.6401039759318
  0
SEQEND
  8
1
  0
POLYLINE
  8
1
 66
1
  0
VERTEX
  8
1
 10
7.12738384246826
 20
1.3598960240682
  0
VERTEX
  8
1
 10
11.1273838424683
 20
1.3598960240682
  0
VERTEX
  8
1
 10
11.1273838424683
 20
0.359896024068195
  0
VERTEX
  8
1
 10
7.12738384246826
 20
0.359896024068195
  0
VERTEX
  8
1
 10
7.12738384246826
 20
1.3598960240682
  0
SEQEND
  8
1
  0
ENDBLK
  8
0
  0
ENDSEC
  0
SECTION
  2
ENTITIES
  0
INSERT
  8
1
  2
B4020_00991868
 10
21.0222892379761
 20
8.14010397593181
  0
ENDSEC
  0
EOF
