  0
SECTION
  2
HEADER
  9
$LIMMIN
 10
0
 20
0
  9
$LIMMAX
 10
52.5
 20
74.25
  9
$EXTMIN
 10
0
 20
76
  9
$EXTMAX
 10
0
 20
55
  0
ENDSEC
  0
SECTION
  2
TABLES
  0
TABLE
  2
LTYPE
 70
9
  0
LTYPE
  2
CONTINUOUS
 70
64
  3
Solid line
 72
65
 73
0
 40
0
  0
LTYPE
  2
DASHED
 70
64
  3
__ __ __ __ __ __ __ __ __
 72
65
 73
2
 40
0.75
 49
0.5
 49
-0.25
  0
LTYPE
  2
DOT
 70
64
  3
...........................
 72
65
 73
2
 40
0.25
 49
0
 49
-0.25
  0
LTYPE
  2
DASHDOT
 70
64
  3
__ . __ . __ . __ . __ . __ . 
 72
65
 73
4
 40
1
 49
0.5
 49
-0.25
 49
0
 49
-0.25
  0
ENDTAB
  0
TABLE
  2
LAYER
 70
10
  0
LAYER
  2
1
 70
0
 62
7
  6
CONTINUOUS
  0
LAYER
  2
CONNECTIONS
 70
0
 62
-7
  6
CONTINUOUS
  0
ENDTAB
  0
ENDSEC
  0
SECTION
  2
BLOCKS
  0
BLOCK
  8
0
  2
TRICON
 70
0
 10
0
 20
0
  0
POLYLINE
  8
1
 70
1
 66
1
 40
0.5
 41
0.5
  0
VERTEX
  8
1
 10
-0.25
 20
0
 42
1
  0
VERTEX
  8
1
 10
0.25
 20
0
 42
1
  0
SEQEND
  8
1
  0
ENDBLK
  8
0
  0
BLOCK
  8
0
  2
TRICONSMALL
 70
0
 10
0
 20
0
  0
POLYLINE
  8
1
 70
1
 66
1
 40
0.25
 41
0.25
  0
VERTEX
  8
1
 10
-0.125
 20
0
 42
1
  0
VERTEX
  8
1
 10
0.125
 20
0
 42
1
  0
SEQEND
  8
1
  0
ENDBLK
  8
0
  0
BLOCK
  8
0
  2
TRICONCIRCLE
 70
0
 10
0
 20
0
  0
CIRCLE
  8
1
 10
0
 20
0
 40
0.5
  0
ENDBLK
  8
0
  0
BLOCK
  8
0
  2
LCBP0
 70
0
 10
0
 20
0
  0
LINE
  8
1
 10
0
 20
-0.46875
 11
0
 21
0.46875
  0
ENDBLK
  8
0
  0
BLOCK
  8
0
  2
LCBP1
 70
0
 10
0
 20
0
  0
LINE
  8
1
 10
0
 20
-0.625
 11
0
 21
0.625
  0
ENDBLK
  8
0
  0
BLOCK
  8
0
  2
LCBP2
 70
0
 10
0
 20
0
  0
LINE
  8
1
 10
0
 20
-0.9375
 11
0
 21
0.9375
  0
ENDBLK
  8
0
  0
BLOCK
  8
0
  2
LCA1
 70
0
 10
0
 20
0
  0
SOLID
  8
1
 62
7 
 10
0
 20
0
 11
-1.4
 21
-0.275
 12
-1.4
 22
0.275
 13
-1.4
 23
0.275
  0
ENDBLK
  8
0
  0
BLOCK
  8
0
  2
LCA2
 70
0
 10
0
 20
0
  0
SOLID
  8
1
 62
7 
 10
0
 20
0
 11
-1.65
 21
-0.525
 12
-1.65
 22
0.525
 13
-1.65
 23
0.525
  0
ENDBLK
  8
0
  0
BLOCK
  8
0
  2
LCA3
 70
0
 10
0
 20
0
  0
SOLID
  8
1
 62
7 
 10
0
 20
0
 11
-2.15
 21
-1.15
 12
-2.15
 22
1.15
 13
-2.15
 23
1.15
  0
ENDBLK
  8
0
  0
BLOCK
  8
0
  2
LCA1R
 70
0
 10
0
 20
0
  0
SOLID
  8
1
 62
7 
 10
0
 20
0
 11
1.4
 21
-0.275
 12
1.4
 22
0.275
 13
1.4
 23
0.275
  0
ENDBLK
  8
0
  0
BLOCK
  8
0
  2
LCA2R
 70
0
 10
0
 20
0
  0
SOLID
  8
1
 62
7 
 10
0
 20
0
 11
1.65
 21
-0.525
 12
1.65
 22
0.525
 13
1.65
 23
0.525
  0
ENDBLK
  8
0
  0
BLOCK
  8
0
  2
LCA3R
 70
0
 10
0
 20
0
  0
SOLID
  8
1
 62
7 
 10
0
 20
0
 11
2.15
 21
-1.15
 12
2.15
 22
1.15
 13
2.15
 23
1.15
  0
ENDBLK
  8
0
  0
BLOCK
  8
0
  2
B13961_00991856
 70
0
 10
0
 20
0
  0
POLYLINE
  8
1
 66
1
  0
VERTEX
  8
1
 10
-34
 20
25.5
  0
VERTEX
  8
1
 10
34
 20
25.5
  0
VERTEX
  8
1
 10
34
 20
-27.5
  0
VERTEX
  8
1
 10
-34
 20
-27.5
  0
VERTEX
  8
1
 10
-34
 20
25.5
  0
SEQEND
  8
1
  0
TEXT
  8
1
 40
2.475
 41
0.75
  1
2
  7
STANDARD
 73
2
 10
36
 20
-21
 11
36
 21
-21
  0
LINE
  8
1
 10
34
 20
-16.5
 11
38
 21
-16.5
  0
LINE
  8
1
 10
-34
 20
1.5
 11
-38
 21
1.5
  0
LINE
  8
1
 10
-34
 20
5.5
 11
-38
 21
5.5
  0
TEXT
  8
1
 40
2.475
 41
0.75
  1
1
  7
STANDARD
 72
2
 73
2
 10
-36
 20
-9.5
 11
-36
 21
-9.5
  0
LINE
  8
1
 10
-34
 20
-12.5
 11
-38
 21
-12.5
  0
TEXT
  8
1
 40
1.8
 41
0.75
  1
XINT
  7
STANDARD
 72
2
 10
-23.2673869768778
 20
7.27474006017049
 11
-23.2673869768778
 21
7.27474006017049
  0
LINE
  8
1
 10
-34
 20
-16.5
 11
14
 21
-16.5
  0
LINE
  8
1
 10
14
 20
-12.5
 11
-34
 21
-12.5
  0
LINE
  8
1
 10
-26
 20
1.5
 11
-34
 21
1.5
  0
LINE
  8
1
 10
-26
 20
5.5
 11
-34
 21
5.5
  0
LINE
  8
1
 10
6
 20
25.5
 11
6
 21
17.5
  0
LINE
  8
1
 10
18
 20
-10.5
 11
18
 21
5.5
  0
LINE
  8
1
 10
18
 20
5.5
 11
6
 21
5.5
  0
POLYLINE
  8
1
 70
1
 66
1
 40
0.5
 41
0.5
  0
VERTEX
  8
1
 10
5.75
 20
5.5
 42
1
  0
VERTEX
  8
1
 10
6.25
 20
5.5
 42
1
  0
SEQEND
  8
1
  0
LINE
  8
1
 10
6
 20
9.5
 11
6
 21
1.5
  0
POLYLINE
  8
1
 70
1
 66
1
 40
0.5
 41
0.5
  0
VERTEX
  8
1
 10
5.75
 20
-12.5
 42
1
  0
VERTEX
  8
1
 10
6.25
 20
-12.5
 42
1
  0
SEQEND
  8
1
  0
LINE
  8
1
 10
6
 20
-6.5
 11
6
 21
-12.5
  0
POLYLINE
  8
1
 70
1
 66
1
 40
0.5
 41
0.5
  0
VERTEX
  8
1
 10
26.75
 20
-16.5
 42
1
  0
VERTEX
  8
1
 10
27.25
 20
-16.5
 42
1
  0
SEQEND
  8
1
  0
LINE
  8
1
 10
-12
 20
-4.5
 11
-16
 21
-4.5
  0
LINE
  8
1
 10
-12
 20
11.5
 11
-16
 21
11.5
  0
LINE
  8
1
 10
-16
 20
1.5
 11
-16
 21
-4.5
  0
LINE
  8
1
 10
-16
 20
11.5
 11
-16
 21
5.5
  0
LINE
  8
1
 10
27
 20
1.5
 11
27
 21
-16.5
  0
LINE
  8
1
 10
27
 20
21.5
 11
-23
 21
21.5
  0
LINE
  8
1
 10
27
 20
21.5
 11
27
 21
7.5
  0
LINE
  8
1
 10
-23
 20
21.5
 11
-23
 21
6.5
  0
LINE
  8
1
 10
-20
 20
1.5
 11
-16
 21
1.5
  0
LINE
  8
1
 10
-20
 20
5.5
 11
-16
 21
5.5
  0
LINE
  8
1
 10
22
 20
-16.5
 11
34
 21
-16.5
  0
LINE
  8
1
 10
-9.99999999999998
 20
-6.5
 11
-7.99999999999998
 21
-2.5
  0
POLYLINE
  8
1
 66
1
  0
VERTEX
  8
1
 10
-12
 20
-2.5
  0
VERTEX
  8
1
 10
-5.99999999999998
 20
-2.5
  0
VERTEX
  8
1
 10
-5.99999999999998
 20
-6.5
  0
VERTEX
  8
1
 10
-12
 20
-6.5
  0
VERTEX
  8
1
 10
-12
 20
-2.5
  0
SEQEND
  8
1
  0
LINE
  8
1
 10
-9.99999999999998
 20
9.5
 11
-7.99999999999998
 21
13.5
  0
POLYLINE
  8
1
 66
1
  0
VERTEX
  8
1
 10
-12
 20
13.5
  0
VERTEX
  8
1
 10
-5.99999999999998
 20
13.5
  0
VERTEX
  8
1
 10
-5.99999999999998
 20
9.5
  0
VERTEX
  8
1
 10
-12
 20
9.5
  0
VERTEX
  8
1
 10
-12
 20
13.5
  0
SEQEND
  8
1
  0
POLYLINE
  8
1
 66
1
  0
VERTEX
  8
1
 10
-34
 20
-15.5
  0
VERTEX
  8
1
 10
-36
 20
-16.5
  0
VERTEX
  8
1
 10
-34
 20
-17.5
  0
SEQEND
  8
1
  0
POLYLINE
  8
1
 66
1
  0
VERTEX
  8
1
 10
5
 20
25.5
  0
VERTEX
  8
1
 10
6
 20
27.5
  0
VERTEX
  8
1
 10
7
 20
25.5
  0
SEQEND
  8
1
  0
POLYLINE
  8
1
 66
1
  0
VERTEX
  8
1
 10
15
 20
-4.5
  0
VERTEX
  8
1
 10
14.5833333333333
 20
-6.5
  0
VERTEX
  8
1
 10
13.75
 20
-2.5
  0
VERTEX
  8
1
 10
12.9166666666666
 20
-6.5
  0
VERTEX
  8
1
 10
12.0833333333334
 20
-2.5
  0
VERTEX
  8
1
 10
11.25
 20
-6.5
  0
VERTEX
  8
1
 10
10.4166666666667
 20
-2.5
  0
VERTEX
  8
1
 10
10
 20
-4.5
  0
SEQEND
  8
1
  0
POLYLINE
  8
1
 66
1
  0
VERTEX
  8
1
 10
15
 20
11.5
  0
VERTEX
  8
1
 10
14.5833333333333
 20
9.5
  0
VERTEX
  8
1
 10
13.75
 20
13.5
  0
VERTEX
  8
1
 10
12.9166666666666
 20
9.5
  0
VERTEX
  8
1
 10
12.0833333333334
 20
13.5
  0
VERTEX
  8
1
 10
11.25
 20
9.5
  0
VERTEX
  8
1
 10
10.4166666666667
 20
13.5
  0
VERTEX
  8
1
 10
10
 20
11.5
  0
SEQEND
  8
1
  0
POLYLINE
  8
1
 66
1
  0
VERTEX
  8
1
 10
-26
 20
6.5
  0
VERTEX
  8
1
 10
-20
 20
6.5
  0
VERTEX
  8
1
 10
-20
 20
0.5
  0
VERTEX
  8
1
 10
-26
 20
0.5
  0
VERTEX
  8
1
 10
-26
 20
6.5
  0
SEQEND
  8
1
  0
POLYLINE
  8
1
 66
1
  0
VERTEX
  8
1
 10
-25
 20
5.5
  0
VERTEX
  8
1
 10
-25
 20
1.5
  0
VERTEX
  8
1
 10
-21
 20
3.5
  0
VERTEX
  8
1
 10
-25
 20
5.5
  0
SEQEND
  8
1
  0
ARC
  8
1
 10
25.750016598876
 20
3.49998340112403
 40
0.5
 50
270
 51
90
  0
LINE
  8
1
 10
25.750016598876
 20
2.99998340112403
 11
25.000016598876
 21
2.99998340112403
  0
LINE
  8
1
 10
25.000016598876
 20
3.99998340112403
 11
25.750016598876
 21
3.99998340112403
  0
LINE
  8
1
 10
25.000016598876
 20
2.14998340112403
 11
25.000016598876
 21
3.99998340112403
  0
ARC
  8
1
 10
28.500016598876
 20
5.99998340112403
 40
1
 50
0
 51
180
  0
LINE
  8
1
 10
29.500016598876
 20
4.99998340112403
 11
29.500016598876
 21
5.99998340112403
  0
LINE
  8
1
 10
27.500016598876
 20
4.99998340112403
 11
27.500016598876
 21
5.99998340112403
  0
POLYLINE
  8
1
 66
1
  0
VERTEX
  8
1
 10
24.000016598876
 20
7.49998340112403
  0
VERTEX
  8
1
 10
30.000016598876
 20
7.49998340112403
  0
VERTEX
  8
1
 10
30.000016598876
 20
1.49998340112403
  0
VERTEX
  8
1
 10
24.000016598876
 20
1.49998340112403
  0
VERTEX
  8
1
 10
24.000016598876
 20
7.49998340112403
  0
SEQEND
  8
1
  0
LINE
  8
1
 10
24.000016598876
 20
7.49998340112403
 11
30.000016598876
 21
1.49998340112403
  0
POLYLINE
  8
1
  6
DOT
 66
1
  0
VERTEX
  8
1
 10
22
 20
-16.2728098873137
  0
VERTEX
  8
1
 10
24
 20
-18.2728098873137
  0
VERTEX
  8
1
 10
24
 20
-22.2728098873137
  0
VERTEX
  8
1
 10
20
 20
-22.2728098873137
  0
VERTEX
  8
1
 10
20
 20
-18.5
  0
SEQEND
  8
1
  0
POLYLINE
  8
1
 66
1
  0
VERTEX
  8
1
 10
16
 20
-18.6666666666667
  0
VERTEX
  8
1
 10
18
 20
-19.0833333333334
  0
VERTEX
  8
1
 10
14
 20
-19.9166666666667
  0
VERTEX
  8
1
 10
18
 20
-20.75
  0
VERTEX
  8
1
 10
14
 20
-21.5833333333334
  0
VERTEX
  8
1
 10
18
 20
-22.4166666666667
  0
VERTEX
  8
1
 10
14
 20
-23.25
  0
VERTEX
  8
1
 10
16
 20
-23.6666666666667
  0
SEQEND
  8
1
  0
POLYLINE
  8
1
 66
1
  0
VERTEX
  8
1
 10
14
 20
-18.5
  0
VERTEX
  8
1
 10
22
 20
-18.5
  0
VERTEX
  8
1
 10
22
 20
-10.5
  0
VERTEX
  8
1
 10
14
 20
-10.5
  0
VERTEX
  8
1
 10
14
 20
-18.5
  0
SEQEND
  8
1
  0
LINE
  8
1
 10
22
 20
-16.5
 11
14
 21
-16.5
  0
INSERT
  8
1
  2
LCA1
 10
14
 20
-16.5
 50
-180
  0
INSERT
  8
1
  2
LCA1R
 10
22
 20
-16.5
 50
-180
  0
LINE
  8
1
 10
6
 20
1.5
 11
6
 21
-0.5
  0
INSERT
  8
1
  2
LCBP1
 10
6
 20
-0.5
 50
-90
  0
LINE
  8
1
 10
6
 20
-6.5
 11
6
 21
-4.5
  0
INSERT
  8
1
  2
LCBP1
 10
6
 20
-4.5
 50
90
  0
POLYLINE
  8
1
 66
1
  0
VERTEX
  8
1
 10
2
 20
1.5
  0
VERTEX
  8
1
 10
10
 20
1.5
  0
VERTEX
  8
1
 10
10
 20
-6.5
  0
VERTEX
  8
1
 10
2
 20
-6.5
  0
VERTEX
  8
1
 10
2
 20
1.5
  0
SEQEND
  8
1
  0
LINE
  8
1
 10
6
 20
17.5
 11
6
 21
15.5
  0
INSERT
  8
1
  2
LCBP1
 10
6
 20
15.5
 50
-90
  0
LINE
  8
1
 10
6
 20
9.5
 11
6
 21
11.5
  0
INSERT
  8
1
  2
LCBP1
 10
6
 20
11.5
 50
90
  0
POLYLINE
  8
1
 66
1
  0
VERTEX
  8
1
 10
2
 20
17.5
  0
VERTEX
  8
1
 10
10
 20
17.5
  0
VERTEX
  8
1
 10
10
 20
9.5
  0
VERTEX
  8
1
 10
2
 20
9.5
  0
VERTEX
  8
1
 10
2
 20
17.5
  0
SEQEND
  8
1
  0
LINE
  8
1
 10
-2
 20
-6.5
 11
-2
 21
1.5
  0
INSERT
  8
1
  2
LCA1
 10
-2
 20
1.5
 50
90
  0
POLYLINE
  8
1
 66
1
  0
VERTEX
  8
1
 10
-6
 20
1.5
  0
VERTEX
  8
1
 10
2
 20
1.5
  0
VERTEX
  8
1
 10
2
 20
-6.5
  0
VERTEX
  8
1
 10
-6
 20
-6.5
  0
VERTEX
  8
1
 10
-6
 20
1.5
  0
SEQEND
  8
1
  0
LINE
  8
1
 10
-2
 20
9.5
 11
-2
 21
17.5
  0
INSERT
  8
1
  2
LCA1
 10
-2
 20
17.5
 50
90
  0
POLYLINE
  8
1
 66
1
  0
VERTEX
  8
1
 10
-6
 20
17.5
  0
VERTEX
  8
1
 10
2
 20
17.5
  0
VERTEX
  8
1
 10
2
 20
9.5
  0
VERTEX
  8
1
 10
-6
 20
9.5
  0
VERTEX
  8
1
 10
-6
 20
17.5
  0
SEQEND
  8
1
  0
CIRCLE
  8
CONNECTIONS
 10
38
 20
-16.5
 40
0
  0
CIRCLE
  8
CONNECTIONS
 10
-38
 20
1.5
 40
0
  0
CIRCLE
  8
CONNECTIONS
 10
-38
 20
5.5
 40
0
  0
CIRCLE
  8
CONNECTIONS
 10
-38
 20
-12.5
 40
0
  0
ENDBLK
  8
0
  0
ENDSEC
  0
SECTION
  2
ENTITIES
  0
INSERT
  8
1
  2
B13961_00991856
 10
38
 20
27.5
  0
ENDSEC
  0
EOF
