  0
SECTION
  2
HEADER
  9
$LIMMIN
 10
0
 20
0
  9
$LIMMAX
 10
52.5
 20
74.25
  9
$EXTMIN
 10
0
 20
76.6180603572682
  9
$EXTMAX
 10
0
 20
16
  0
ENDSEC
  0
SECTION
  2
TABLES
  0
TABLE
  2
LTYPE
 70
9
  0
LTYPE
  2
CONTINUOUS
 70
64
  3
Solid line
 72
65
 73
0
 40
0
  0
LTYPE
  2
DASHED
 70
64
  3
__ __ __ __ __ __ __ __ __
 72
65
 73
2
 40
0.75
 49
0.5
 49
-0.25
  0
LTYPE
  2
DOT
 70
64
  3
...........................
 72
65
 73
2
 40
0.25
 49
0
 49
-0.25
  0
LTYPE
  2
DASHDOT
 70
64
  3
__ . __ . __ . __ . __ . __ . 
 72
65
 73
4
 40
1
 49
0.5
 49
-0.25
 49
0
 49
-0.25
  0
ENDTAB
  0
TABLE
  2
LAYER
 70
10
  0
LAYER
  2
1
 70
0
 62
7
  6
CONTINUOUS
  0
LAYER
  2
CONNECTIONS
 70
0
 62
-7
  6
CONTINUOUS
  0
ENDTAB
  0
ENDSEC
  0
SECTION
  2
BLOCKS
  0
BLOCK
  8
0
  2
TRICON
 70
0
 10
0
 20
0
  0
POLYLINE
  8
1
 70
1
 66
1
 40
0.5
 41
0.5
  0
VERTEX
  8
1
 10
-0.25
 20
0
 42
1
  0
VERTEX
  8
1
 10
0.25
 20
0
 42
1
  0
SEQEND
  8
1
  0
ENDBLK
  8
0
  0
BLOCK
  8
0
  2
TRICONSMALL
 70
0
 10
0
 20
0
  0
POLYLINE
  8
1
 70
1
 66
1
 40
0.25
 41
0.25
  0
VERTEX
  8
1
 10
-0.125
 20
0
 42
1
  0
VERTEX
  8
1
 10
0.125
 20
0
 42
1
  0
SEQEND
  8
1
  0
ENDBLK
  8
0
  0
BLOCK
  8
0
  2
TRICONCIRCLE
 70
0
 10
0
 20
0
  0
CIRCLE
  8
1
 10
0
 20
0
 40
0.5
  0
ENDBLK
  8
0
  0
BLOCK
  8
0
  2
LCBP0
 70
0
 10
0
 20
0
  0
LINE
  8
1
 10
0
 20
-0.46875
 11
0
 21
0.46875
  0
ENDBLK
  8
0
  0
BLOCK
  8
0
  2
LCBP1
 70
0
 10
0
 20
0
  0
LINE
  8
1
 10
0
 20
-0.625
 11
0
 21
0.625
  0
ENDBLK
  8
0
  0
BLOCK
  8
0
  2
LCBP2
 70
0
 10
0
 20
0
  0
LINE
  8
1
 10
0
 20
-0.9375
 11
0
 21
0.9375
  0
ENDBLK
  8
0
  0
BLOCK
  8
0
  2
LCA1
 70
0
 10
0
 20
0
  0
SOLID
  8
1
 62
7 
 10
0
 20
0
 11
-1.4
 21
-0.275
 12
-1.4
 22
0.275
 13
-1.4
 23
0.275
  0
ENDBLK
  8
0
  0
BLOCK
  8
0
  2
LCA2
 70
0
 10
0
 20
0
  0
SOLID
  8
1
 62
7 
 10
0
 20
0
 11
-1.65
 21
-0.525
 12
-1.65
 22
0.525
 13
-1.65
 23
0.525
  0
ENDBLK
  8
0
  0
BLOCK
  8
0
  2
LCA3
 70
0
 10
0
 20
0
  0
SOLID
  8
1
 62
7 
 10
0
 20
0
 11
-2.15
 21
-1.15
 12
-2.15
 22
1.15
 13
-2.15
 23
1.15
  0
ENDBLK
  8
0
  0
BLOCK
  8
0
  2
LCA1R
 70
0
 10
0
 20
0
  0
SOLID
  8
1
 62
7 
 10
0
 20
0
 11
1.4
 21
-0.275
 12
1.4
 22
0.275
 13
1.4
 23
0.275
  0
ENDBLK
  8
0
  0
BLOCK
  8
0
  2
LCA2R
 70
0
 10
0
 20
0
  0
SOLID
  8
1
 62
7 
 10
0
 20
0
 11
1.65
 21
-0.525
 12
1.65
 22
0.525
 13
1.65
 23
0.525
  0
ENDBLK
  8
0
  0
BLOCK
  8
0
  2
LCA3R
 70
0
 10
0
 20
0
  0
SOLID
  8
1
 62
7 
 10
0
 20
0
 11
2.15
 21
-1.15
 12
2.15
 22
1.15
 13
2.15
 23
1.15
  0
ENDBLK
  8
0
  0
BLOCK
  8
0
  2
B124324_00991835
 70
0
 10
0
 20
0
  0
TEXT
  8
1
 40
2.475
 41
0.75
  1
110
  7
STANDARD
 72
2
 10
12.2413733437138
 20
1.0375
 11
12.2413733437138
 21
1.0375
  0
TEXT
  8
1
 40
2.475
 41
0.75
  1
12
  7
STANDARD
 73
2
 10
-31.6233129864457
 20
2.6
 11
-31.6233129864457
 21
2.6
  0
TEXT
  8
1
 40
2.475
 41
0.75
  1
2
  7
STANDARD
 72
2
 73
2
 10
27.1090301786341
 20
6.9
 11
27.1090301786341
 21
6.9
  0
TEXT
  8
1
 40
2.475
 41
0.75
  1
11
  7
STANDARD
 72
2
 73
2
 10
27.0090301786341
 20
-6.3
 11
27.0090301786341
 21
-6.3
  0
TEXT
  8
1
 40
2.475
 41
0.75
  1
33
  7
STANDARD
 73
2
 10
31.8090301786341
 20
-6.4
 11
31.8090301786341
 21
-6.4
  0
LINE
  8
1
 10
31.3090301786341
 20
-8
 11
31.3090301786341
 21
-4
  0
LINE
  8
1
 10
27.3090301786341
 20
4
 11
27.3090301786341
 21
8
  0
LINE
  8
1
 10
27.3090301786341
 20
-4
 11
27.3090301786341
 21
-8
  0
TEXT
  8
1
 40
2.475
 41
0.75
  1
1
  7
STANDARD
 72
2
 73
2
 10
-12.9909698213659
 20
-6.3
 11
-12.9909698213659
 21
-6.3
  0
TEXT
  8
1
 40
2.475
 41
0.75
  1
2
  7
STANDARD
 72
2
 73
2
 10
-12.7909698213659
 20
7
 11
-12.7909698213659
 21
7
  0
TEXT
  8
1
 40
2.475
 41
0.75
  1
3
  7
STANDARD
 73
2
 10
-8.09096982136591
 20
-6.3
 11
-8.09096982136591
 21
-6.3
  0
LINE
  8
1
 10
-8.69096982136591
 20
-8
 11
-8.69096982136591
 21
-4
  0
LINE
  8
1
 10
-12.6909698213659
 20
4
 11
-12.6909698213659
 21
8
  0
LINE
  8
1
 10
-12.6909698213659
 20
-4
 11
-12.6909698213659
 21
-8
  0
POLYLINE
  8
1
 66
1
  0
VERTEX
  8
1
 10
38.3090301786341
 20
-2
  0
VERTEX
  8
1
 10
37.8923635119674
 20
-4
  0
VERTEX
  8
1
 10
37.0590301786341
 20
0
  0
VERTEX
  8
1
 10
36.2256968453008
 20
-4
  0
VERTEX
  8
1
 10
35.3923635119673
 20
0
  0
VERTEX
  8
1
 10
34.5590301786341
 20
-4
  0
VERTEX
  8
1
 10
33.7256968453008
 20
0
  0
VERTEX
  8
1
 10
33.3090301786341
 20
-2
  0
SEQEND
  8
1
  0
POLYLINE
  8
1
 66
1
  0
VERTEX
  8
1
 10
-1.69096982136591
 20
-2
  0
VERTEX
  8
1
 10
-2.10763648803263
 20
-4
  0
VERTEX
  8
1
 10
-2.94096982136591
 20
0
  0
VERTEX
  8
1
 10
-3.77430315469916
 20
-4
  0
VERTEX
  8
1
 10
-4.60763648803266
 20
0
  0
VERTEX
  8
1
 10
-5.44096982136591
 20
-4
  0
VERTEX
  8
1
 10
-6.27430315469915
 20
0
  0
VERTEX
  8
1
 10
-6.69096982136591
 20
-2
  0
SEQEND
  8
1
  0
LINE
  8
1
  6
DASHDOT
 10
10.3090301786341
 20
-2
 11
3.30903017863409
 21
-6
  0
LINE
  8
1
  6
DASHDOT
 10
10.3090301786341
 20
-2
 11
3.30903017863409
 21
2
  0
LINE
  8
1
 10
10.3090301786341
 20
-2.99999999999999
 11
4.3090301786341
 21
-2.99999999999999
  0
LINE
  8
1
 10
4.3090301786341
 20
-0.99999999999999
 11
10.3090301786341
 21
-0.99999999999999
  0
POLYLINE
  8
1
 70
1
 66
1
 40
0.5
 41
0.5
  0
VERTEX
  8
1
 10
2.9409698213659
 20
-1.99997051831807
 42
1
  0
VERTEX
  8
1
 10
3.4409698213659
 20
-1.99997051831807
 42
1
  0
SEQEND
  8
1
  0
CIRCLE
  8
1
 10
3.1909698213659
 20
-1.99997051831807
 40
1.5
  0
CIRCLE
  8
1
 10
10.3090301786341
 20
-2
 40
1
  0
ARC
  8
1
 10
10.3090301786341
 20
-2
 40
1
 50
90
 51
270
  0
LINE
  8
1
 10
10.3090301786341
 20
-1
 11
11.3090301786341
 21
-1
  0
LINE
  8
1
 10
11.3090301786341
 20
-3
 11
10.3090301786341
 21
-3
  0
LINE
  8
1
 10
17.3090301786341
 20
-3
 11
11.3090301786341
 21
-3
  0
LINE
  8
1
 10
11.3090301786341
 20
-1
 11
17.3090301786341
 21
-1
  0
LINE
  8
1
  6
DASHDOT
 10
-29.6909698213659
 20
-2
 11
-36.6909698213659
 21
-6
  0
LINE
  8
1
  6
DASHDOT
 10
-29.6909698213659
 20
-2
 11
-36.6909698213659
 21
2
  0
LINE
  8
1
 10
-29.6909698213659
 20
-2.99999999999999
 11
-35.6909698213659
 21
-2.99999999999999
  0
LINE
  8
1
 10
-35.6909698213659
 20
-0.99999999999999
 11
-29.6909698213659
 21
-0.99999999999999
  0
POLYLINE
  8
1
 70
1
 66
1
 40
0.5
 41
0.5
  0
VERTEX
  8
1
 10
-37.0590301786341
 20
-1.99997051831807
 42
1
  0
VERTEX
  8
1
 10
-36.5590301786341
 20
-1.99997051831807
 42
1
  0
SEQEND
  8
1
  0
CIRCLE
  8
1
 10
-36.8090301786341
 20
-1.99997051831807
 40
1.5
  0
CIRCLE
  8
1
 10
-29.6909698213659
 20
-2
 40
1
  0
ARC
  8
1
 10
-29.6909698213659
 20
-2
 40
1
 50
90
 51
270
  0
LINE
  8
1
 10
-29.6909698213659
 20
-1
 11
-28.6909698213659
 21
-1
  0
LINE
  8
1
 10
-28.6909698213659
 20
-3
 11
-29.6909698213659
 21
-3
  0
LINE
  8
1
 10
-22.6909698213659
 20
-3
 11
-28.6909698213659
 21
-3
  0
LINE
  8
1
 10
-28.6909698213659
 20
-1
 11
-22.6909698213659
 21
-1
  0
LINE
  8
1
 10
19.3090301786341
 20
-4
 11
19.3090301786341
 21
-2
  0
INSERT
  8
1
  2
LCBP1
 10
19.3090301786341
 20
-2
 50
90
  0
POLYLINE
  8
1
 66
1
  0
VERTEX
  8
1
 10
17.3090301786341
 20
4
  0
VERTEX
  8
1
 10
25.3090301786341
 20
4
  0
VERTEX
  8
1
 10
25.3090301786341
 20
-4
  0
VERTEX
  8
1
 10
17.3090301786341
 20
-4
  0
VERTEX
  8
1
 10
17.3090301786341
 20
4
  0
SEQEND
  8
1
  0
LINE
  8
1
 10
19.3090301786341
 20
4
 11
23.3090301786341
 21
-4
  0
INSERT
  8
1
  2
LCA1
 10
23.3090301786341
 20
-4
 50
-63.434948822922
  0
LINE
  8
1
 10
-12.6909698213659
 20
-4
 11
-12.6909698213659
 21
-2
  0
INSERT
  8
1
  2
LCBP1
 10
-12.6909698213659
 20
-2
 50
90
  0
POLYLINE
  8
1
 66
1
  0
VERTEX
  8
1
 10
-14.6909698213659
 20
4
  0
VERTEX
  8
1
 10
-6.69096982136591
 20
4
  0
VERTEX
  8
1
 10
-6.69096982136591
 20
-4
  0
VERTEX
  8
1
 10
-14.6909698213659
 20
-4
  0
VERTEX
  8
1
 10
-14.6909698213659
 20
4
  0
SEQEND
  8
1
  0
LINE
  8
1
 10
-12.6909698213659
 20
4
 11
-8.69096982136591
 21
-4
  0
INSERT
  8
1
  2
LCA1
 10
-8.69096982136591
 20
-4
 50
-63.434948822922
  0
POLYLINE
  8
1
 66
1
  0
VERTEX
  8
1
 10
25.3090301786341
 20
4
  0
VERTEX
  8
1
 10
33.3090301786341
 20
4
  0
VERTEX
  8
1
 10
33.3090301786341
 20
-4
  0
VERTEX
  8
1
 10
25.3090301786341
 20
-4
  0
VERTEX
  8
1
 10
25.3090301786341
 20
4
  0
SEQEND
  8
1
  0
LINE
  8
1
 10
31.3090301786341
 20
-4
 11
31.3090301786341
 21
-2
  0
INSERT
  8
1
  2
LCBP1
 10
31.3090301786341
 20
-2
 50
90
  0
LINE
  8
1
 10
27.3090301786341
 20
-4
 11
27.3090301786341
 21
4
  0
INSERT
  8
1
  2
LCA1
 10
27.3090301786341
 20
4
 50
90
  0
POLYLINE
  8
1
 66
1
  0
VERTEX
  8
1
 10
-22.6909698213659
 20
4
  0
VERTEX
  8
1
 10
-14.6909698213659
 20
4
  0
VERTEX
  8
1
 10
-14.6909698213659
 20
-4
  0
VERTEX
  8
1
 10
-22.6909698213659
 20
-4
  0
VERTEX
  8
1
 10
-22.6909698213659
 20
4
  0
SEQEND
  8
1
  0
LINE
  8
1
 10
-16.6909698213659
 20
-4
 11
-16.6909698213659
 21
-2
  0
INSERT
  8
1
  2
LCBP1
 10
-16.6909698213659
 20
-2
 50
90
  0
LINE
  8
1
 10
-20.6909698213659
 20
-4
 11
-20.6909698213659
 21
4
  0
INSERT
  8
1
  2
LCA1
 10
-20.6909698213659
 20
4
 50
90
  0
CIRCLE
  8
CONNECTIONS
 10
27.3090301786341
 20
-8
 40
0
  0
CIRCLE
  8
CONNECTIONS
 10
31.3090301786341
 20
-8
 40
0
  0
CIRCLE
  8
CONNECTIONS
 10
27.3090301786341
 20
8
 40
0
  0
CIRCLE
  8
CONNECTIONS
 10
-12.6909698213659
 20
-8
 40
0
  0
CIRCLE
  8
CONNECTIONS
 10
-8.69096982136591
 20
-8
 40
0
  0
CIRCLE
  8
CONNECTIONS
 10
-12.6909698213659
 20
8
 40
0
  0
ENDBLK
  8
0
  0
ENDSEC
  0
SECTION
  2
ENTITIES
  0
INSERT
  8
1
  2
B124324_00991835
 10
38.3090301786341
 20
8
  0
ENDSEC
  0
EOF
